Oops, an error
Loading. Please wait.

Bajo El Mismo Cielo Tab

34 views 1 this week
no commentswrite comment
1 2 3 4 5
3 more votes to show rating
add to favorites
×
Save as Personal and add changes to this tab that will be seen only by you. Learn more ›
×
You can save this tab as Personal to edit and correct it or add notes. All changes will be seen only by you. Learn more »
save as personal
new!
launch autoscroll
font size
0
reset
how to read this tab
guitar tuner
Autoscroll
slow
fast
+/-
esc
set tempo
stop
INTRO:

#1
e|:---------------------------------------------------:|
b|:---------------------------------------------------:|
g|:---------------------------------------------------:|
d|:-------0------------0------------4-----------4-----:|  X2
a|:----2-----2------4-----4-------5----5------5----5--:|
e|:-3-3--3--3-3--5-5--5--5--5--7-7-7--7-7--7-7-7--7-7-:|

PM_____________________________________________________(Palm mute
                                                        constante)

#2
e|:---------------------------------------------------:|
b|:---------------------------------------------------:|
g|:---------------------------------------------------:|
d|:-------0------------0------------4-----------4-----:|  X2
a|:----2-----2------4-----4-------5----5------5----5--:|
e|:-3-3--3--3-3--5-5--5--5--5--7-7-7--7-7--7-7-7--7-7-:|

PM_____  _  _ ______ __ __  ______ _  _ ______ _ __ ___

      (Palm mute solo donde haya linea,
       en espacio en blanco va normal)

COMIENZA A CANTAR CON EL HACIENDO EL #1

Una ventana rota, la calle se ahoga sola.
Algun patio, algun recuerdo, poco importa ahora quiero estar lejos.


G5                  A5
  Por muy lejos que marche el mismo cielo.

e|:---------------------------:|
b|:---------------------------:|
g|:---------------------------:|
d|:---------------------------:|  ----> G5
a|:-----9-10-9--------9-10-9--:|
e|:-7-7--7--7---7-7-7--7--7---:|
 PM____  _  _  ______  _  _


e|:---------------------------:|
b|:---------------------------:|
g|:---------------------------:|
d|:---------------------------:|  ----> A5
a|:-----5-4-5--------5-4-5----:|
e|:-3-3--3-3---3-3-3--3-3-----:|
 PM____  _ _  ______  _ _


B5                        G5                      F#5
Lluvia no escupas mas tristeza a esta despedida, quieta,

                          A5
no ves que se ablanda el suelo, yo me hundo,

     B5                              G5
y no puedo...Me quemas el cuerpo, intento afinar sonrisa,

 F#5                           A5
muero de pena y no hay tregua, es una eterna derrota.

B5                       G5                         F#5
Miento si no digo que el tiempo asesino de sentimientos

                    A5
nos dejara de lado, cada uno con su sueño.

B5
Espero estar entre los vuestros...

e|:---------------------------:|    (Al terminar la primera
b|:---------------------------:|       vuelta, hace esto
g|:---------------------------:|      la 2da guitarra PM)
d|:---------------------------:| X2
a|:-----5-4-5--------5-4-5----:|    a|:--10-10-9-9-7s5--:|
e|:-3-3--3-3---3-3-3--3-3-----:|
 PM____  _ _  ______  _ _


e|:---------------------------:|
b|:---------------------------:|
g|:---------------------------:|
d|:---------------------------:|
a|:-----7-5-7-------7-5-5-----:|
e|:-5-5--5-5--5-5-5--5-5------:|

 PM____  _ _  ______  _ _


LUEGO SIGUE UN ARPEGIO MAS O MENOS ASI:

e|:---------------------------------------:|
b|:-3---3----3---7---7---7---5---5---5----:|
g|:--0---0----0---0---0---0---0---0---0---:|
d|:---0---0--0-0---0---0---0---0---0---0--:|
a|:-2------------0---0---0---0---0---0----:|
e|:-----3---------------------------------:|
   |____________|
  (Cada bajo de estos
  lo repiten 6 veces)

e|:---------------------------------------:|
b|:-3---3----3---5---5---5---5---5---5----:|
g|:--0---0----0---0---0---0---0---0---0---:|
d|:---0---0--0-0---0---0---0---0---0---0--:|
a|:-2------------0---0---0---0---0---0----:|
e|:-----3---------------------------------:|
   |____________|
    (Lo mismo,lo
   repiten 6 veces)


AQUI CANTA:
Escucho el silencio de tu boca,mientras vomitas pasado de muerte.
No es que quisiera pederte, es que a solas te siento perdido.
Te añoro y te ansio, y a la vez te odio,eres tu mi unico asesino,
maldito tiempo maldito.
Quiza algun dia regreses, quiza me encuentres tendido en el asfalto,
lo intente tantas veces.
Quedaras sorprendido, hoy no te necesito, no te necesito...

LUEGO;

  a|:--10-10-9-9-7s5--:|(PM)


     B5    G5       D5       A5
e|:--------7----------------------:|
b|:---10----10-8-7-10---8-7-------:|
g|:-s9--7~-----------7~----7-9~---:|
d|:-------------------------------:|
a|:-------------------------------:|
e|:-------------------------------:|

    B5    G5     D5 A5 B5    G5   D5   A5
e|:-7-9-10-9-7-------------------------------:|
b|:-----------10-8-7-----10-8-7---8h7--8h7---:|
g|:-----------------7~--7------7~----7~---7~-:|
d|:------------------------------------------:|
a|:------------------------------------------:|
e|:------------------------------------------:|


B5                G5                    D5     A5
 Si ya no queda tiempo ahora podemos perder...

B5                G5         D5        A5
 Como casa abandonada simpre os esperare.

B5                     G5        D5            A5
 Si me encuentro perdido, pondre un espejo al cielo,

B5                 G5                 D5            A5
 Cuando busque estrellas, sereis parte del mismo infierno.


            B5                G5                D5
Estareis conmigo, estareis conmigo, sereis mi camino,

            A5
la luz que siempre esta al final.

                  B5               G5                   D5
(Estareis conmigo) De este eterno tunel que ni nos conduce

A5
ni nos deja estar.

B5                     G5                   D5
 Ahora guardare el silencio, palabras sin viento

                 A5                  B5           G5
aunque el tiempo tengo que preguntar. Cuando sea viejo y

                D5             A5
nadie este a mi lado... Mi amigos donde estaran..?


AHORA VIENE EL ARPEGIO FINAL MAS O MENOS ASI:

e|:---------3-------------------------------:|
b|:-1--3--1----0--3--1--3--1--1--3--1-------:|
g|:--0--0--0-0--0--0--2--2--2--2--2--2------:|(Va con estas
d|:---2--2----0--0-----2--2-----0--0--------:| Posiciones:
a|:-3----------------0----------------------:| C-G-Am-F)
e|:---------3-----------------1-------------:|

e|:-0--------3--------0---------------------:|
b|:----3--1-----0--3-----3--1--1--3--1------:|
g|:--0--0--0--0--0--0--2--2--2--2--2--2-----:|
d|:---2--2-----0--0-----2--2-----0--0-------:|
a|:-3-----------------0---------------------:|
e|:---------3------------------1------------:|


TODO LO ANTERIOR DOS VECES, Y CANTA:

Por muy lejos que marche, mas lejos se queda el cielo;
y siempre que quiero, siempre lo veo.

TERMINA EN C.

_Espero que la entiendan. Ya saben cualquier cosa
 al dddiegovagas@
_TIPICO PERO CIERTO_
Suggest correction
Give kudos to tab author, rate the tab!
1 2 3 4 5
comments
print report bad tab
guest
Wanna post a correction for this tab? Suggest correction