Oops, an error
Loading. Please wait.

Desde La Ventana Tab

30 views 1 this week
no commentswrite comment
1 2 3 4 5
3 more votes to show rating
add to favorites
launch autoscroll
font size
0
reset
how to read this tab
guitar tuner
Autoscroll
slow
fast
+/-
esc
set tempo
stop
Help us to improve Ultimate-Guitar.com Take our survey!
×
Hola! esta es mi primera tab.
Saque esta canciona oido.. pero creo que esta completamente bien..
ahi se las dejo. Tambien tengo otras de Tipico por si acaso.

INTRO:

e|:----3p2p0---3---3p2p0---2h3---:|
b|:------------3-----------3-----:|
g|:---0-------0---0------0-------:|
d|:--2------------------0--------:|    X2
a|:----------3-------------------:|
e|:--------------3---------------:|

Arpegio 1:

e|:--3---3---3---2---3---2---0---0---0----2----3---2h3--:|
b|:---0---0---0---0---0---0---0---0---0----3----2-------:|
g|:----0---0-------0---0-------0---0---0----0----0------:|
d|:--2---2---2---0---0---0---3---3---3----0---0----0----:|  X2
a|:-----------------------------------------------------:|
e|:-----------------------------------------------------:|
                                         ._________________.
                                         Esta parte cambia
                                         en la segunda vuelta

                                         e|:--5----3---3~-:|
                                         b|:----3---3-----:|
                               Asi:      g|:-----0---0----:|
                                         d|:--0----0---0--:|
                                         a|:--------------:|
                                         e|:--------------:|

(Les pongo los acordes pero sigue el arpegio con esos bajos)

Em     D           C           D
 Encadenada la esperanaza de seguir viviendo,

Em                 D                      C
 Los golpes de los años que no dejan de correr.

Em            D                    C
 Apoyas la mirada, con ella el corazon

Em       D                      C
 En los niños que juegan en el parque...


(Ahora entran las Quintas PM)

G5    D5          C5
 Todo desde la ventana..  a|:--5--3--2~---12-10-9s10~--:|

G5          D5          C5
 Tu vida en forma de silencio  a|:--9s10--9s10--9s10--:|

(Notas con cejilla)

G        D             Em                   C
 Que caminabas, y te gritaban ni la lluvia puede mojarla,

G                  D                       C
 Se ha secado el momento, se te fue de las manos...

(Notas normales)

Em        C           G          D
 Quisiera volver a nacer, aprovechar mas el tiempo,

Em             C           G              D
 no quiero que cojas ese tren, no quiero que toques el cielo.

Em              C             G          D
 Quisiera ser cuadro en tu pared, sonreirte cada segundo,

Em       C            G           D                    Em
 como hacerte comprender que eres parte de mi mundo...


(Se repite el Intro y el arpegio, pero en este cantan:)

E                  D            C

 Ahora duerme tranquila, descansa,

E                                        E D C D...
 espero que mañana no pierdas la esperanza.


ARPEGIO FINAL

e|:--7--5--7--5--3--5--3--2--3--3--2--3----:|
b|:---0--0--0--0--0--0--0--0--0--0--0--0---:|
g|:----0--0-----0--0-----0--0-----0--0-----:|
d|:----------------------------------------:|
a|:--7--7--7--5--5--5--3--3--3- 3--3--3----:|
e|:----------------------------------------:|

e|:--7--5--7--5--3--5--3--2--3--3--2--3----:|
b|:---0--0--0--2--2--2--0--0--0--0--0--0---:|
g|:----0--0-----0--0-----0--0-----0--0-----:|
d|:----------------------------------------:|
a|:--7--7--7--5--5--5--3--3--3- 3--3--3----:|
e|:----------------------------------------:|


Em...
Gracias! ( dddiegovargas@
Suggest correction
Give kudos to tab author, rate the tab!
1 2 3 4 5
comments
print report bad tab
guest
You may want to rate the tab now too:
select rating
Wanna post a correction for this tab? Suggest correction