Oops, an error
Loading. Please wait.

Hoy Como Tantxs Tab

7 views 1 this week
no commentswrite comment
1 2 3 4 5
3 more votes to show rating
add to favorites
launch autoscroll
font size
0
reset
how to read this tab
guitar tuner
Autoscroll
slow
fast
+/-
esc
set tempo
stop
Help us to improve Ultimate-Guitar.com Take our survey!
×
ARPEGIO 1.

e|:-------------------0-----0-----:|
b|:---1p0----0h1-0-----3-----3----:|
g|:--0---0--0-----0--2--2--2--2---:|
d|:-------0---------0-----0-------:|
a|:-3-----------------------------:|
e|:--------0----------------------:|

A ESTO LO LLAMAREMOS G*.

e|:---3--3-0----:|
b|:---3--3-0----:|
g|:--------0----:|
d|:--------2----:|
a|:--------2----:|
e|:--3--2--0----:|


C             Em             D
 Como quien apuesta para perder, sabe que no ira bien.

C              D                  G*
 Como quien se corta las venas, sabiendo que no habra otra vez.

C              Em              D
 Como una lagrima en el desierto queriendo dar de beber.

C             Em                D
 Como una sonrisa a medias, como un te quiero sin cariño.

C                   D
 Asi muere una cancion...


ARPEGIO 1 DOS VECES.

C              Em            D
 Como una realidad que miente, y que sueña con crecer.

C             D                       G*
 Como una pesadilla despierta que hoy no quiere dormir.

C                  Em        D
 Como un niño que se defiende, de un cuento que no quiere escuchar.

C                 D                C                     D
 Que prefiere llorar, pero sin palabras para poderlo callar.


Em          D             C
 Hoy revolvi todos mi recuerdos, no me ha sentado bien

Em      D          C
 creo que no volvere.

Em       D           C
 Hoy llore todas mis penas, lo he vuelto a hacer,

Em       D             C     G*
 otra derrota pera perder... Otra vez.


ARPEGIO 1 DOS VECES.

C             Em           D
 Como un naufrago de voluntad, con un mapa pa retroceder,

C           D             G*
 como un barco pirata sin barco y con ganas de rey.

C           Em         C               Em
 Como una cuerda floja, que ya no aguanta mas pasos,

C           Em         D
 y yo un equilibrista, mirando hacia abajo.

C                   Em         C                Em
 Quien fue el que quito la red? Si me caigo no me levanto,

C           Em            D
 tendre que darme prisa, sera este mi ultimo asalto

 G*                         D
Otra vez... La mirada partida contra la pared.


ARPEGIO 1 DOS VECES

AHORA COMIENZA A CANTAR, DEBEN HACER UN ARPEGIO DEL ESTILO
DEL ARPEGIO 1 CON CADA NOTA:

C         Em               D
 Como una noche rota en papel, y una lagrima rompiendola a el,

C               D         G*
 escapa de sus ojos, ya no la quiere ver.

C          Em            D
 Dicen que por las noches, cuando nadie le ve,

Em             C   Em            D                      G*       C   D
 sueña con sus ojos, rotos de engaño.. gano la apuesta de perder...


ARPEGIO:

e|:----3-----3-----3-----3-----3-----3-----0--2--3--2h3--:|
b|:---3-3---3-3---3-3---3-3---3-3---3-3---3-3--3--3------:|
g|:--0---0-0---0-0---0-0---0-0---0-0---0-0---0--0--0-----:|
d|:-------------------------------------0----------------:|
a|:-------------------------3-----2----------------------:|
e|:-3-----2-----0-----0----------------------------------:|

COMIENZA A CANTAR HACIENDO UN ARPEGIO PARECIDO AL ANTERIOR
PERO CON LOS BAJOS INDICADOS.

G                F#                   E        C       B        D
 Cuando crees que ya no puedes perder mas, aun puedes perder la voz.

G               F#   E   C   B          D
 Y muda y tan desnuda     morira tu cancion.


ARPEGIO:

       Y si ves que aun perdido...
e|:-----3--------5--------7------------------:|
b|:---3---3----5---5----7---7--7h8-7--5s7-7--:|
g|:--0-0-0-0--0-0-0-0--0-0-0-0------7--------:|
d|:------------------------------------------:|
a|:-3--------5--------7----------------------:|
e|:------------------------------------------:|

       Aun te quedan esperanzas..
e|:-----3--------5--------7-----5------------:|
b|:---3---3----5---5----7---7----7-8~--------:|
g|:--0-0-0-0--0-0-0-0--0-0-0-0---------------:|
d|:------------------------------------------:|
a|:-3--------5--------7----------------------:|
e|:------------------------------------------:|

C5         D5           E5   C5         D5           E5
 Vuelve A levantar LA voz...  Vuelve a levantar la voz...

C5            D5                        E5
 Y busca mil motivos que te hagan seguir vivo,

                B5                    C5   D5
 que hagan a tus ojos no dejar de brillar.


E5        C5             G5           D5
 No volveran las frias noches en que nos vieron llorar...

E5        C5             G5           D5
 No volveran las frias noches en que nos vieron llorar...

E5        C5 G5 D5              E5 C5 G5 D5
 No volveran ......... No volveran


SE REPITE
FIN.

Acordes:
    C5 D5 E5 G5  B5
e|:--x--x--x--x---x---:|
b|:--x--x--x--x---x---:|
g|:--5--7--9--12--4---:|
d|:--5--7--9--12--4---:|
a|:--3--5--7--10--2---:|
e|:--x--x--x--x---x---:|


Para mas tabs y acordes dddiegovargas@
Suggest correction
Give kudos to tab author, rate the tab!
1 2 3 4 5
comments
print report bad tab
guest
You may want to rate the tab now too:
select rating
Wanna post a correction for this tab? Suggest correction