Oops, an error
Loading. Please wait.

Solo Me Tropecé Tab

10 views 1 this week
no commentswrite comment
1 2 3 4 5
3 more votes to show rating
add to favorites
launch autoscroll
font size
0
reset
how to read this tab
guitar tuner
Autoscroll
slow
fast
+/-
esc
set tempo
stop
INTRO
E|-0----------------------------| x3
B|-0----------------------------|
G|-1-------------------2----2---|
D|-2------2-4-2-4-2---4-4--3-3--|
A|-2------2-4--------4----3-----|
E|-0----------------------------|

E|-0--------------------------1-| x1
B|-0-------------------------1--|
G|-1-------------------2----2---|
D|-2------2-4-2-4-2---4-4--3----|
A|-2------2-4--------4----3-----|
E|-0----------------------------|

ESTROFA
E                           F#m          F      E     
 Yo sé que la vida no es un algodón, lo sé, la mía
E                            F#m             F     E                 
 Tampoco es tam mala pero igual que vos, la cambiaría.

ESTRIBILLO
F#m                     G#
 Y hoy igual que vos,                     Tocar el E* de esta manera
A                                               E|---------|
 También tengo una misión                       B|---------|
E                           F#m                 G|---------|
 No me dejes por favor, lo sé                   D|-2-0-1h2-|
  E*              A                             A|-2-------|
 Solo me tropecé                                E|---------|


ESTROFA
E                       F#m           F        E    A
 Un día me desperté con el furgor de lo que haría
E                             F#m         F      E    A
 Al día siguiente alguien me despertó con agua fría
E                       F#m             F     E      A 
 Pasaron los años y yo sigo igual, que cambiarías?
E                     F#m             F   E     A
 Y como los años pasaron también, las avenidas

ESTRIBILLO
Y hoy ugual que ayer,
también tengo algo que hacer
No me puedo detener, sabes?
Ni lo pienso hacer

SOLO

E|-0-0----2-2----2-2--0----------------|-0-0----2-2----2-2--0-|
B|-0-0----2-2----4-4--0----------------|-0-0----2-2----4-4--0-|
G|-1-1----3-3----4-4--1---0h2~-2~0-----|-1-1----3-3----4-4--1-|
D|-2-2----4-4----4-4--2----------2-0---|-2-2----4-4----4-4--2-|
A|-2-2----4-4----2-2--2----------------|-2-2----4-4----2-2--2-|
E|-0-0----2-2----2-2--0----------------|-0-0----2-2----2-2--0-|

E|-5-3h4---------------------------------------------|-0-0----2-2------------|
B|-------5-3---3-5---------------5-3-----------------|-0-0----2-2------------|
G|-----------4---------3~2-0--------3----3~2~0-----0-|-1-1----3-3------------|
D|--------------------------2-------------------2h0--|-2-2----4-4----2-0-1h2-|
A|---------------------------------------------------|-2-2----4-4----2-------|
E|---------------------------------------------------|-0-0----2-2------------|

ESTROFA
Yo se que la vida...

ESTRIBILLO
Y hoy que igual que ayer...


E    F#        B  
 No ves, solo me tropecé
E          F#        B
 No no no ves, solo me tropecé
E         F#        B   
 ayyy no ves, solo me tropecé

FINAL
E|-3h4-3-0---------------------|-1-0--|
B|----------3-0----------------|-1-0--|
G|--------------2-0------------|-2-1--|
D|------------------2-0-0-1-2--|-3-2--|
A|---------------------2-------|-3-2--|
E|-----------------------------|-1-0--|


El final es una improvisación mía, no es el mismo pero suena muy bien.
No acepto sugerencias de este tema porque suena casi igual al original.
Decicado a la Mapa, la tipita más linda de Adrogué.
Suggest correction
Give kudos to tab author, rate the tab!
1 2 3 4 5
comments
print report bad tab
guest
You may want to rate the tab now too:
select rating
Wanna post a correction for this tab? Suggest correction