Oops, an error
Loading. Please wait.

Una Canción Chords

version 2
version 2

Whole song

13 views 1 this week
no commentswrite comment
1 2 3 4 5
3 more votes to show rating
add to favorites
launch autoscroll
font size
0
reset
transpose
0
reset
simplify chords
display chords
guitar tuner
×
Best way to learn
"Una Canción"
Autoscroll
slow
fast
+/-
esc
set tempo
stop
Intro en E...


                  Asus2    Bsus2       E
Me quedó una canción atravesada en el pecho
            E7     Asus2       Bsus2    E
Y tengo el presentimiento o la premonición


             E7        F#m7(add11)
Que va a quedarse aqui adentro un tiempo
  Bsus2      Dbm       Eadd9   F#m7(add11)
A menos que cante como cantaba antes
       Bsus2     Am9
De empezar a crecer


G                D          E
Alguna vez me pasó sin querer
        E7         Am
Se escapó una canción
      G                 Bsus4  B   E
Pero nunca más pudo volver


E....


                     Asus2          Bsus2     E
Salí a buscarla a lo alto hasta que toqué la cima
           E7        Asus2              Bsus2   E
Y cuando no hay más arriba hay que empezar a bajar


         E7        F#m7(add11)
Buscando sin un descanso
      Bsus2    Dbm              Eadd9     F#m7(add11)
me distrajiste bajando y cuando miré ya estaba
       Bsus2     Am9
En el fondo del mar


 G                  D           E
Por esos lados que nunca da el sol
            E7        Am
Dicen que alguien la oyó
       G              Bsus4  B    E
En la boca de otro cantor


E....


                    Asus2           Bsus2    E
Cuando volví de tan lejos estaba un poco cansado
             E7     Asus2         Bsus2       E
Y después de unos lavados te escribí esta canción


             E7        F#m7(add11)
Que va a quedarse aquí dentro
             Bsus2     Dbm       Eadd9   F#m7(add11)
un tiempo a menos que cante como cantaba antes
        Bsus2    E
De empezar a crecer


TONO   E Asus2 Bsus2  E7  F#m7(add11) Dbm  Eadd9  A9   G   D
------------------------------------------------------------
CUERDA

1      0---0-----0----0------0---------0-----0-----0---3---2
2      0---0-----0----0------0---------5-----0-----0---3---3
3      1---2-----4----1------2---------6-----4-----5---4---2
4      2---2-----4----0------4---------6-----4-----5---5---0
5      2---0-----2----2------4---------4-----X-----0---5---X
6      0---X-----X----0------X---------X-----4-----5---3---X


TONO  Bsus4  Am   B
--------------------------------------------------------------
CUERDA

1      2-----0----2
2      5-----1----4
3      4-----2----4
4      4-----2----4
5      2-----0----2
6      X-----X----X

Un abrazo a la gente de Gesell y vamos Asuntos Internos todavía.
Suggest correction
Give kudos to tab author, rate the tab!
1 2 3 4 5
comments
print report bad tab
guest
You may want to rate the tab now too:
select rating
Wanna post a correction for this tab? Suggest correction