Oops, an error
Loading. Please wait.

Vívelo Tab

7 views 1 this week
no commentswrite comment
1 2 3 4 5
3 more votes to show rating
add to favorites
launch autoscroll
font size
0
reset
how to read this tab
guitar tuner
×
Best way to learn
"Vívelo"
Autoscroll
slow
fast
+/-
esc
set tempo
stop
INTRO DE ESTE BUEN TEMA

e------------------------------------
B------------------------------------
G---2/4--2-----------2---------------
D------------4-2-4------5---2-----0--
A------------------------------------
E------------------------------------


e------------------------------------------------
B-----------------3------------------------------
G-------2---2-4-4---4-2--2/4-2-------------------
D-0-2-4---4--------------------2/4-2--0----------
A------------------------------------------------
E------------------------------------------------

Creo que es así cualquier duda: gaston_magi@
disfruten de la filosofía musical de los Tipitos...
Suggest correction
Give kudos to tab author, rate the tab!
1 2 3 4 5
comments
print report bad tab
guest
You may want to rate the tab now too:
select rating
Wanna post a correction for this tab? Suggest correction