Oops, an error
Loading. Please wait.

En Tu Día Mi Amor Chords

30 views 1 this week
no commentswrite comment
1 2 3 4 5
3 more votes to show rating
add to favorites
launch autoscroll
font size
0
reset
transpose
0
reset
display chords
guitar tuner
×
Best way to learn
"En Tu Día Mi Amor"
Autoscroll
slow
fast
+/-
esc
set tempo
stop
Aqui les dejo una rola que en particular me agrada mucho y a petición
aquí esta.
Es la versión original cualquier corrección,error,duda y también los votos
serán muy bien recibidos.

intro; G/Em/C/D

        G
En tu día, mi amor
     Em          C           D
te regalo, te regalo, esta flor

       G                  Em
felicito a la, que me ha dado
       C            D
me ha dado, el corazón
     C                   D
Quisiera regalarte vida mia
         C            D         G
lo que sueñas en tus dulces fantasías
           E                    C
le doy gracias a Dios que la vida te dio
        D             G
porque me llego el amor.

          G
*Como un petalo en flor
      Em              C           D
vas brotando, vas brotando, mi amor
          G
llegas a la ilusión
       Em           C          D
de tus años  de tus años, corazón
     C                   D
Quisiera regalarte vida mia
         C            D         G
lo que sueñas en tus dulces fantasias
           E                    C
le doy gracias a Dios que la vida te dio
        D              G /Bm/C/D  >>> Riff 1 <<<
porque me llego el amor.

*Como un petalo en flor .......
(se repite lo mismo)

Esto es un pequeñito Arpegio que le mete al circulo muy sencillo.

                   Riff 1
          G                   Bm
1 .|-----------------|-----------------------
2 .|-----------------|-----------------------
3 .|-----------------|-----------------------
4 .|----5-0-5-0-5----|--4---4---4------------
5 .|-----------------|----5---5--------------
6 .|-----------------|-----------------------

                   Riff 1
           C                   D
1 .|-----------------|-----------------------
2 .|-----------------|-----------------------
3 .|-----------------|-----------------------
4 .|----2---2---2----|------0----------------
5 .|------3---3------|-----------------------
6 .|-----------------|-----------------------


eduarke@
Suggest correction
Give kudos to tab author, rate the tab!
1 2 3 4 5
comments
print report bad tab
guest
You may want to rate the tab now too:
select rating
Wanna post a correction for this tab? Suggest correction