Oops, an error
Loading. Please wait.

Lo Mismo Que A Usted Chords

40 views 1 this week
no commentswrite comment
1 2 3 4 5
3 more votes to show rating
add to favorites
launch autoscroll
font size
0
reset
transpose
0
reset
simplify chords
display chords
guitar tuner
×
Best way to learn
"Lo Mismo Que A Usted"
Autoscroll
slow
fast
+/-
esc
set tempo
stop
Lleva Capo en el tercer traste.

Intro: Em Am7 Em Bm7 B7
       Em G6  Em G6
(Hay fa# como nota bajo entre Em y G6)


Em                      G6
A mi me pasa, lo mismo que a usted
Em            E7        Am7
Me siento solo, lo mismo que usted
B7                     Em
Paso la noche llorando
Em(maj7) Em7  F#
La noche esperando
        B7
Lo mismo que usted

Em                     G6
A mi me pasa lo mismo que a usted
Em             E7       Am7
Nadie me espera, lo mismo que a usted
B7                     Em                  F#
Porqué se sigue negando el amor que voy buscando
B7       Em
Lo mismo que usted

Am7                      G         Am7
Cuando yo llego a mi casa y abro la puerta
         G
Me espera el silencio
Am7                G
Silencio de besos, silencio de todo
       F#                        B7
Me siento tan solo, lo mismo que usted

Em                     G6
A mi me pasa lo mismo que a usted
Em            E7       Am7
Nadie me espera lo mismo que a usted
B7                    Em
Paso la noche llorando
Em(maj7) Em7  F#
La noche esperando
B7       Em
Lo mismo que usted

Am7 G Am7 G

Am7                G
Silencio de besos, silencio de todo
       F#                        B7
Me siento tan solo, lo mismo que usted

Em                     G6
A mi me pasa lo mismo que a usted
Em            E7       Am7
Nadie me espera lo mismo que a usted
B7                    Em
Paso la noche llorando
             F#
La noche esperando
B7       Em
Lo mismo que usted
Em           B7           Em
A mi me pasa lo mismo que a usted

Am7 Em Bm7 B7 Em

Acordes:

Em   022000
G6   320000
Bm7  x2423x
Am7  x02010
F#   244322
B7   x21202 o 2x1202 (con bajo alternado)
E7   020100
Em(maj7) 021000
Em7  020000
G    320033

 Recuerden tocar con ritmo bolero, que lleva bajos con
pulgar y agudos en tres cuerdas con índice, medio y anular.
Ejemplo:

   Em            G6
|----0-0---0---0---0-0---0---0-----
|----0-0---0---0---0-0---0---0----- b bajo
|----0-0---0---0---0-0---0---0----- a agudos
|----------------------------------
|--------------------------2-------
|--0-----2---2---3-----2-----------
   b a a b a b a b a a b a b a

   Em    E7      Am7
|----0-0---0---0---0-0---0---0-----
|----0-0---0---0---1-1---1---1-----
|----0-0---1---1---0-0---0---0-----
|----------------------------------
|--------2---2---0-----0-----------
|--0-----------------------3-------

   B7            Em   (maj7) m7
|----2-2---2---2---0-0---0----0----
|----0-0---0---0---0-0---0----0----
|----2-2---2---2---0-0---0----0----
|----------------------1----0------
|--------2---2---------------------
|--2-------------0-----------------

   F#            B7
|----2-2---2---2---2-2---2---2-----
|----2-2---2---2---0-0---0---0-----
|----3-3---3---3---2-2---2---2-----
|--------------------------1-------
|--------4---4---2-----2-----------
|--2-------------------------------

cualquier duda: olrez@ ;)
Suggest correction
Give kudos to tab author, rate the tab!
1 2 3 4 5
comments
print report bad tab
guest
You may want to rate the tab now too:
select rating
Wanna post a correction for this tab? Suggest correction