Oops, an error
Loading. Please wait.

El Regalo Más Grande Tab

version 1
version 1

Whole song

737 views 6 this week
no commentswrite comment
1 2 3 4 5
3 more votes to show rating
add to favorites
launch autoscroll
font size
0
reset
how to read this tab
guitar tuner
×
Best way to learn
"El Regalo Más Grande"
Autoscroll
slow
fast
+/-
esc
set tempo
stop
hola amigos soy ever martinez desde colombia.
aqui les dejo mi primera transcripcion,
que por ser la primera no se
si este del todo perfecta, pero a mi gusto suena muy bien.
les recomiendo escuchen la cancion para que puedan
encajar de forma correcta
las notas que aqui les coloco.
BY:manemartin@

INTRO:

e-----------------------------------||
B-----------------------------------||(esto indica repeticion del
G-------3-3----------------3-3------º| arpegio una ves mas)
D--3-3------3-s-5-v----3-3-----3----º|
A-----------------------------------||
E-----------------------------------||

Quiero hacerte un regalo
                        e-------------------
                        B-------------------
                        G-------3-3---------
                        D--3-3------3-s-5-v-

algo dulce               algo raro
         E-------------          E-------------------
         B-------------          B-------------------
         G-------3-3---          G-------3-3---------
         D--3-3------3-          D--3-3------3-s-5-v-

eh eh eh...              no un regalo comun
        E-------------                1*  E-------------------
        B-------------                    B-------------------
        G-------3-3---                    G-------3-3---------
        D--3-3------3-                    D--3-3------3-s-5-v-

de los que perdiste o nunca abriste que olvidaste en un tren
               2*  E-------------
                   B-------------
                   G-------3-3---
                   D--3-3------3-
o no aceptaste                    eh eh eh..
    3*  E-------------------        4*   E-------------
        B-------------------             B-------------
        G-------3-3---------             G-------3-2---
        D--3-3------3-s-5-v-             D--3-3--------

de los que abres y lloras que estas feliz y no finges
                  5*    E-------------    6*  E-------------
                        B------5-5-3--        B------3-3-2--
                        G--5-5--------        G--3-3--------
                        D-------------        D-------------
en este dia de septiembre        te dedicare
                  E-------------           E-------------
                  B------5-5-3--           B------3-3-2--
                  G--5-5--------           G--3-3--------
                  D-------------           D-------------

De aqui en adelante entra la guitarra con acordes,
pero para el arpegio se repiten las tablaturas de
LA siguiente manera:

              1*
mi regalo mas grande
                                        2*
quiero donar tu sonrisa a la luna asi que
                                      3*
de noche que la mire pueda pensar en ti
                                     4*
porque tu amor para mi es importante
                                           5*
y no me importa lo que diga la gente porque
                                      6*
aun con celos se que me protegias y se
                                           5*
que aun cansada tu sonrrisa no se marcharia
                                   6*
mañana saldre de viaje y me llevare

tu presencia para que

sea nunca ida y siempre vuelta...

mi regalo mas grande mi regalo mas grande eh eh eh...

para el resto de la cancion encajan los mismos arpegios,
es cuestion de que escuchen atentamente la cancion y
sepan encajar los arpegios
a la melodia.
beuno no estoy seguro si para la parte que dice
"y si llegara ahora el fin que sea en un abismo...."
encajen pero para el resto de la cancion si.

espero les guste esta transcripcion y acepto cualquier
recomencacion o correcion.
dedico esta cancion a esa persona que sabe que le encanta
cada vez que la canto y que con su sonrrisa me da
"el regalo mas grande"
Suggest correction
Give kudos to tab author, rate the tab!
1 2 3 4 5
comments
print report bad tab
guest
You may want to rate the tab now too:
select rating
Wanna post a correction for this tab? Suggest correction