Oops, an error
Loading. Please wait.

Inminente Conjunción Tab

version 2
version 2

Whole song

Interactive

14 views 1 this week
no commentswrite comment
1 2 3 4 5
3 more votes to show rating
add to favorites
launch autoscroll
font size
0
reset
how to read this tab
guitar tuner
×
Best way to learn
"Inminente Conjunción"
Autoscroll
slow
fast
+/-
esc
set tempo
stop
Y aca esta la versión mas completa de esta buenisima canción, con todas las
correcciones de mi transcripción anterior, disfrutenla...

Acordes extra:

        E A D G B E
        -----------
  T1 =  3 2 0 0 3 3
  T2 =  0 3 2 0 3 3
  T3 =  0 2 2 0 3 3
  T4 =  2 0 0 2 3 2

INTRO:  arpegios de los acordes:
       (Tocar al aire la primera cuerda en los tres primeros acordes)
    T1                T2                T3                T4
e---------0------------------0-----------------0----------------2h3-2-----
B----3-----3-----------3----3------------3----3------------3----------3---
G-----0-----------------0-----------------0-----------------2----------2--
D------------0------------2-----------------2-----------------0-----------
A-------2------------3---------3-------2---------2-------0----------------
E--3----------------------------------------------------------------------

(todos los punteos son acompañados con los acordes T1 T2 T3 y T4)

Utiliza este punteo acompañando al intro y al final de la canción.
e----------------------------------------------|
B----10--10--10--10--12--12--12--12--12--12----|
G--12------12------12------12------12------12--|
D----------------------------------------------|
A----------------------------------------------|
E----------------------------------------------|  |  (punteo-2)
                                                  |  (2 veces)
e--------------------10--10--10--10--10--10----|  V
B----10--10--10--10----------------------------|
G--12------12------12------12------12------12--|
D----------------------------------------------|
A----------------------------------------------|
E----------------------------------------------|

(Solo arpegios)
T1     T2
Y será como vez
T3       T4
volverás a crecer
  T1      T2
y vivirás al llover
  T3       T4
y lloraras sin temer

(Rasgueo con arpegios)
   G             D
Un lapicero de cuero
   Em          C
un papel de cemento
G                D
pintan vida algo púrpura
Em          C
en mi calle decepción

   T1              T2
Un libro que no respira mas
     T3                T4
un balón que se olvido ya de su forma
    T1                       T2
una radio que amplifica su obsolescencia
  T3                  T4
y yo aquí expirando a pesar de vivir

G* G* G* D - Bm C* C* C* - G* G* G* D - Bm C* C* C* - A...

  ( G* : variante de G )          ( C* : variante de C )
e|---|---|-*-|---|---|---|       e|---|---|-*-|---|---|---|
B|---|---|-*-|---|---|---|       B|---|---|-*-|---|---|---|
G|---|---|-*-|-*-|---|---|       G|---|---|-*-|---|-*-|---|
D|---|---|-*-|---|-*-|---|       D|---|---|-*-|---|-*-|---|
A|---|---|-*-|---|-*-|---|       A|---|---|-*-|---|---|---|
E|---|---|-*-|---|---|---|       E|---|---|-*-|---|---|---|
/                                /

    G            D
Quiero volar sin despegar
     Em            C
y llegar ahi a tus ojos y tu cuello
  G                    D
pulir la brillantes de tu armadura
  Em                   C
lograr la sensación de ya no poder mas

T1     T2
Y será como vez  (como vez)
T3       T4
volverás a crecer
  T1      T2
y vivirás al llover  (al llover)
  T3       T4
y lloraras sin temer

                             (punteo-2)         (LA 1 vez)
                                      |----10---------------------
                                      |---------12---13---10-10---
(repetir 3 veces y luego pasar a -->  |--12---12---12---12-----12-
e-----------------------------|       |---------------------------
B--10------12---13-12-10---10-|       |---------------------------
G----12--12---12---------12---|       |---------------------------
D-----------------------------|                 (La 2 vez)
A-----------------------------|       |----10---------------------
E-----------------------------|       |---------12---13------10---
                       y luego a -->  |--12---12---12---11h12--12-
                                      |---------------------------
                                      |---------------------------
                                      |---------------------------

  G                   D
Será la causa del oro negro
    Em                    C
que brilla nada y su intercambio es valido
 G             D
ella es así yo no la quiero ver
    Em              C     ( T1  T2  T3  T4 ) <-- (solo arpegios)
quiere relucir y yo no la dejooo         yo no la dejo

(solo arpegios)
T1                   T2
Me doy cuenta que buscándote a ti
T3                   T4
llego tarde a la inminente conjunción
  T1                T3
sola vendrás con el tercer elemento
         T3                     T4           [punteo-3]
mientras sigo esperando con un amigo y un bastoooon
(punteo-1)
    Y será inminente conjunción.

                    (punteo-3)
                     (2 veces)
e-------------------------------------------------------10-10-10--|
B-----10----10---10-----10----10---10-----10----10---10-----------|
G--12----12----12----12----12----12----12----12----12-------------|
D-----------------------------------------------------------------|
A-----------------------------------------------------------------|
E-----------------------------------------------------------------|

                                                                   @(KyA)@
==========================================================================
 Notas:
-Se que has escuchado en el transcurrir de la canción arpegios que
 acompañan los acordes aparte de los que puse aqui.
 Escribeme si estas interesado (de los arpegios claro), ojo que ya cambie
 de correo.
==========================================================================
Suggest correction
Give kudos to tab author, rate the tab!
1 2 3 4 5
comments
print report bad tab
guest
You may want to rate the tab now too:
select rating
Wanna post a correction for this tab? Suggest correction