Oops, an error
Loading. Please wait.

Inminente Conjunción Tab

version 3
version 3

Whole song

Interactive

by TK
19 views 1 this week
no commentswrite comment
1 2 3 4 5
3 more votes to show rating
add to favorites
launch autoscroll
font size
0
reset
how to read this tab
guitar tuner
×
Best way to learn
"Inminente Conjunción"
Autoscroll
slow
fast
+/-
esc
set tempo
stop
Esta cación es muy buena y se la dedico a mi gf Fresia 

Nota:  EN EL ARPEGIO , la nota ?Sol? se toca con la primera cuerda al aire; 
       y al final de la nota ?Re?  se hace un efecto en la primera cuerda 
       hacia el tercer traste. 

Arpegio:   SOL - DO - MIm - RE 

Intro:    ( 2 veces )                    
e----------------------------------------------|                
B----10--10---10---10------12-12--12-12--------|             
G--12--12--12--12------12---------12--------12-|             
D----------------------------------------------|             
A----------------------------------------------|             
E----------------------------------------------|             


                    
e----------------------------------10-10----10-10--|         
B----10--10---10---10------------------------------|      
G--12--12--12--12------12---------12--------12-----|      
D--------------------------------------------------|      
A--------------------------------------------------|      
E--------------------------------------------------|      


(Tocar como arpegio:)
 SOL        DO
 Y será   como ves
MIm       RE
volverás a crecer
  SOL     DO
vivirás al llover
MIm       RE
llorarás sin temer


(Rasgueo:)
   SOL        RE
Un lapicero de cuero
   MIm       DO
un papel de cemento
SOL             RE
pintan vida algo púrpura
MIm       DO
en mi calle decepción

   SOL        DO
Un libro que no respira más
MIm                    RE
un balón que se olvidó ya de su forma
   SOL                        DO
una radio que amplifica su obsolescencia
MIm                    RE
y yo aquí expirando a pesar de vivir

Tocar una vez cada nota:   Sol  Sol  Re  Mim  Do  Do
                          SOL  SOL  RE  MIm  DO  DO
   
                       LA

  SOL        RE
Quiero volar sin despegar
MIm                    DO
llegar ahí, a sus ojos y su cuello
   SOL                 RE
pulir la brillantez de su armadura
MIm                    DO
lograr la sensación de ya no poder más

(Coro).


E  -----7--8--7----------- -7--8--7-----------
B  -10-10-----------10--10- ----------10--10-  
G------------------------- -------------------  
D---------------------------------------------      
A---------------------------------------------      
E---------------------------------------------      
 
 -7--8--7-------- -10--8--7--------------------|
 ----------10-10- -----------10-10-10----------|
--------------------------- -------------------| 
-----------------------------------------------|      
-----------------------------------------------|      
-----------------------------------------------|      
 


[2 veces] 

SOL                  RE 
Será la causa el oro negro
MIm                       DO
que brilla nada y su intercambio es válido
  SOL          RE
ella es así yo no la quiero ver
MIm                  DO   
quiere relucir y no la dejo

[Arpegio:]   SOL        DO        MIm        RE         
         Mejoooor            yo no la dejo       


SOL                  DO
Me doy cuenta que buscando
MIm                       RE
llego tarde a la inminente conjunción
SOL                  DO 
sola vendrá con el tercer elemento
MIm                       RE
mientras sigo esperando con un amigo
     SOL            DO
un bastón
MIm         RE   
Inminente  conjunción

(Repetir el punteo del intro)
Suggest correction
Give kudos to tab author, rate the tab!
1 2 3 4 5
comments
print report bad tab
guest
You may want to rate the tab now too:
select rating
Wanna post a correction for this tab? Suggest correction