Oops, an error
Loading. Please wait.

Inminente Conjunción Tab

version 4
version 4

Whole song

Interactive

13 views 1 this week
no commentswrite comment
1 2 3 4 5
3 more votes to show rating
add to favorites
launch autoscroll
font size
0
reset
how to read this tab
guitar tuner
×
Best way to learn
"Inminente Conjunción"
Autoscroll
slow
fast
+/-
esc
set tempo
stop
Acordes y punteos (completo)

Intro
e----------------------------------------------|                
B-----------4-----------------------4----------|             
G--4--6-4-6----6--4-------4--6-4-6--------6--4-|             
D----------------------------------------------|             
A----------------------------------------------|             
E----------------------------------------------|             
                  
e----------------------------------------------|                
B--------------4--------------------4b6--------|             
G--4--6-4-6------6--4-------4--6-4-6---4-------|             
D----------------------------------------------|             
A----------------------------------------------|             
E----------------------------------------------|      

e----------------------------------------------|                
B--------------4--------------------4----------|             
G--4--6-4-6-----6--4-------4--6-4-6-------6--4-|             
D----------------------------------------------|             
A----------------------------------------------|             
E----------------------------------------------|

e----------------------------------------------|                
B--------------4--------------------4b6--------|             
G--4--6-4-6------6--4-------4--6-4-6---4-------|             
D----------------------------------------------|             
A----------------------------------------------|             
E----------------------------------------------|      

e----------------------------------------------|                
B----------------------------------9---9----9--|             
G-7-9-7-9-7-11-7-11-7-11-7-9-7-9-7---7---7-----|             
D----------------------------------------------|             
A----------------------------------------------|             
E----------------------------------------------|      

e----------------------------------------------|                
B----------------------------------9---9----9--|             
G-7-9-7-9-7-11-7-11-7-11-7-9-7-9-7---7---7-----|             
D----------------------------------------------|             
A----------------------------------------------|             
E----------------------------------------------|      

Em+5  (032013)
Fmaj9 (003213)


 Em+5         Fmaj9
 Y será  como ves
F              G
volverás a crecer
 Em+5        Fmaj9 
vivirás al llover
F              G
llorarás sin temer


G             D
Un lapicero de cuero
   E         C
un papel de cemento
G                D 
pintan vida algo púrpura
E       D
en mi calle decepción

   G        C
Un libro que no respira más
E                    C
un balón que se olvidó ya de su forma
   G                        D
una radio que amplifica su obsolescencia
E                   D
y yo aquí expirando a pesar de vivir

   
G  D  F  C


  G           D
Quiero volar sin despegar
E                      C
llegar ahí, a sus ojos y su cuello
G                      D
pulir la brillantez de su armadura
E                      C
lograr la sensación de ya no poder más


CORO


E  -------------------------------------------
B  --------12-11-12----12-11------------------  
G---14b15-----------14------------------------
D---------------------------------------------      
A---------------------------------------------      
E---------------------------------------------      
 
E  -------------------------------------------
B  --------12-11-12----12-11------------------  
G---14b15-----------14------------------------
D---------------------------------------------      
A---------------------------------------------      
E---------------------------------------------


E  -------------------------------------------
B  --------12-11-12----12-11------------------  
G---14b15-----------14------------------------
D---------------------------------------------      
A---------------------------------------------      
E---------------------------------------------


E  -------------------------------------------
B  ----14b15-14---12---12-----12--------------  
G-------------------14-----14-----14----------
D---------------------------------------------      
A---------------------------------------------      
E---------------------------------------------


E  -------------------------------------------
B  --------12-11-12----12-11------------------  
G---14b15-----------14------------------------
D---------------------------------------------      
A---------------------------------------------      
E---------------------------------------------      
 
E  -------------------------------------------
B  --------12-11-12----12-11------------------  
G---14b15-----------14------------------------
D---------------------------------------------      
A---------------------------------------------      
E---------------------------------------------


E  -------------------------------------------
B  --------12-11-12----12-11------------------  
G---14b15-----------14------------------------
D---------------------------------------------      
A---------------------------------------------      
E---------------------------------------------


E  -------------------------------------------
B  ----14b15-14---12---12-----12--------------  
G-------------------14-----14-----14----------
D---------------------------------------------      
A---------------------------------------------      
E---------------------------------------------

G                  D 
Será la causa el oro negro
E                       C
que brilla nada y su intercambio es válido
  G         D
ella es así yo no la quiero ver
E                  C   
quiere relucir y no la dejo

G   C   Em   F


G                  C
Me doy cuenta que buscando
E                       D
llego tarde a la inminente conjunción
G                     C
sola vendrá con el tercer elemento
E                         D
mientras sigo esperando con un amigo
     G            C
un bastón
E         D   
Inminente  conjunción
Suggest correction
Give kudos to tab author, rate the tab!
1 2 3 4 5
comments
print report bad tab
guest
You may want to rate the tab now too:
select rating
Wanna post a correction for this tab? Suggest correction