Oops, an error
Loading. Please wait.

Inminente Conjunción Bass Tab

version 1
version 1

Whole song

Interactive

by TK
18 views 1 this week
no commentswrite comment
1 2 3 4 5
3 more votes to show rating
add to favorites
launch autoscroll
font size
0
reset
guitar tuner
Autoscroll
slow
fast
+/-
esc
set tempo
stop
Help us to improve Ultimate-Guitar.com Take our survey!
×
Esta cancion el bajo es muy facil,
hay algunos errorcitos pero weno no se notan.
Esta cancion va para mi Mafe:
I miss you all days in the classroom of english
and now too baby.

Intro

G--|---------------------------------------------------|
D--|---------------------------------------------------|
A--|------2---5---3-----3---2-----2--5--5--------------|x4
E--|--3------------------------------------------------|

Y seraaa como ves....
G--|---------------------------------------------------|
D--|---------------------------------------------------|
A--|------2---5---3-----3---2-----2--5--5--------------|x2
E--|--3------------------------------------------------|

Un lapicero de cuero....
G--|---------------------------------------------------|
D--|------------56-------------------------------------|
A--|---------5-5-----------------3-3-3/5-3-------------|x2
E--|--3-33-3---------0-00-0----------------------------|

Un libro quee no respira mas....
G--|---------------------------------------------------|
D--|---------------------------------------------------|
A--|----------3-33-3---------------5-55-5--------------|x2
E--|--3-33-3----------0-00-0---------------------------|

Intermedio
G--|---------------------|---|-------------------------|
D--|---------------------|---|-------------------------|
A--|-------5--------2-33-|x2-|-5\1---------------------|
E--|--333----------------|---|-------5-55-5--5-55-5----|

Quiero volaarrr-......
G--|---------------------------------------------------|
D--|------------56-------------------------------------|
A--|---------5-5-----------------3-3-3/5-3-------------|x2
E--|--3-33-3---------0-00-0----------------------------|

Y seraaa como ves....
G--|---------------------------------------------------|
D--|---------------------------------------------------|
A--|---------3-33-3---2-22-2----5-55-5-----------------|x4
E--|--3-33-3-------------------------------------------|

Sera la cuasa el oro negro....
G--|---------------------------------------------------|
D--|------------56-------------------------------------|
A--|---------5-5-----------------3-3-3/5-3-------------|x2
E--|--3-33-3---------0-00-0----------------------------|

mejoooooooor.....yo no la dejo...
G--|---------------------------------------------------|
D--|---------------------------------------------------|
A--|------2---5---3-----3---2-----2--5--5--------------|x2
E--|--3------------------------------------------------|

G--|---------------------------------------------------|
D--|---------------------------------------------------|
A--|------2---5---3-----3---2-----2--55555555----------|
E--|--3------------------------------------------------|

Y seraaaa como ves....
G--|---------------------------------------------------|
D--|---------------------------------------------------|
A--|---------3-33-3---2-22-2----5-55-5-----------------|
E--|--3-33-3-------------------------------------------|

G--|---------------------------------------------------|
D--|---------------------------------------------------|
A--|---------3-33-3---2-22-2----5-5-55/9\7-------------|
E--|--3-33-3-------------------------------------------|

G--|---------------------------------------------------|
D--|---------------------------------------------------|
A--|---------3-33-3---2-22-2----5-55-5-----------------|x2
E--|--3-33-3-------------------------------------------|

Outro
G--|---------------------------------------------------|
D--|---------------------------------------------------|x4
A--|------3--32--25--5----3--32--25--5-----------------|
E--|--3--3------------3--3-----------------------------|

Viva todo lo de Peru!!! y sobre todo la musica wo!! \n/
Suggest correction
Give kudos to tab author, rate the tab!
1 2 3 4 5
comments
print report bad tab
guest
You may want to rate the tab now too:
select rating
Wanna post a correction for this tab? Suggest correction