Oops, an error
Loading. Please wait.

Mis Noches Sin Tí Tab

16 views 1 this week
no commentswrite comment
1 2 3 4 5
3 more votes to show rating
add to favorites
launch autoscroll
font size
0
reset
how to read this tab
guitar tuner
Autoscroll
slow
fast
+/-
esc
set tempo
stop
Help us to improve Ultimate-Guitar.com Take our survey!
×
Ritmo: Guarania


Intro:


e|------------0-3-3-3-3-0-------0----------------------
B|--1-1-1-1-3-------------1-3-1---3-1------------------
G|-0----------------------------------2-0-0-0-0---0-2-2
D|2---------------------------------------------2------
A|-----------------------------------------------------
E|-----------------------------------------------------


e|--------------------
B|--------0-0-0-0--0-1
G|2-2---2---------2---
D|----3---------------
A|--------------------
E|--------------------

 C                         A7             Dm
Sufro al pensar que el destino logro separarnos,
  G7                                      C
guardo tan bellos recuerdos que no olvidaré,
                      C7                 F    Fm
sueños que juntas forjaron tu alma y la mi---ia,
        C        A7        Dm
en las horas de dicha infinita,
                 G7                   C
que añoro en mi canto y no han de volver ...

 C                      A7               Dm
Hoy que en mi vida tan solo quedó tu recuerdo
  G7                                         C
guardo en mis labios tus besos que saben a miel,
                C7                    F Fm
tu cabellera sedosa acaricio en mis sueños
            C           A7     Dm
y en mi estrechan tus brazos amantes
             G7                C          E7
Al arrullo suave del amor de ayer ...

 Am               E7                 Am       G7
Mi corazón en tinieblas te busca con ansias,
 C                 G7                  C   C7
rezo tu nombre pidiendo que vuelvas a mi
 F                      Fm               C   Bb  A7
porque sin ti ya ni el sol ilumina mis dias
                  Dm                   G7
y al llegar la aurora me encuentra llorando
                C
Mis noches sin ti ...


Repite intro:

e|------------0-3-3-3-3-0-------0----------------------
B|--1-1-1-1-3-------------1-3-1---3-1------------------
G|-0----------------------------------2-0-0-0-0---0-2-2
D|2---------------------------------------------2------
A|-----------------------------------------------------
E|-----------------------------------------------------

                          E7
e|--------------------
B|--------0-0-0-0--0-1
G|2-2---2---------2---
D|----3---------------
A|--------------------
E|--------------------


 Am               E7                 Am       G7
Mi corazón en tinieblas te busca con ansias,
 C                 G7                  C   C7
rezo tu nombre pidiendo que vuelvas a mi
 F                      Fm               C   Bb  A7
porque sin ti ya ni el sol ilumina mis dias
                  Dm                   G7
y al llegar la aurora me encuentra llorando
                C         G#      C C/B
Mis noches sin ti ...
Suggest correction
Give kudos to tab author, rate the tab!
1 2 3 4 5
comments
print report bad tab
guest
You may want to rate the tab now too:
select rating
Wanna post a correction for this tab? Suggest correction