Oops, an error
Loading. Please wait.

Como Un Marica Bass Tab

14 views 1 this week
no commentswrite comment
1 2 3 4 5
3 more votes to show rating
add to favorites
launch autoscroll
font size
0
reset
guitar tuner
Autoscroll
slow
fast
+/-
esc
set tempo
stop
Help us to improve Ultimate-Guitar.com Take our survey!
×
intro solo bajo y voz
"yo kiero kambiar..."
------------------------------------------------------------------
------------------------------------------------------------------
-----------------55-555-555-555-5-------------------------5-5-5---
33-333-333-333-3------------------22-222-2-55-555-5-3-3-3-------3-

Verso
"y ya k mas da..."
no se kuantas veces, sigue la kancion
------------------------------------------------------------------
------------------------------------------------------------------
----------555555555----------------------------5-5-5-------5-5-5--
333333333-----------22222222---55555555--3-3-3-------3-3-3---------
Coro
"y no entiendo..."
--------------------------------------------------------------------
--------------------------------------------------------------------
555555555555-X2---------------------------------------5-5-5-------5-
----------------222222222222-X2-333333333333-X2-3-3-3-------3-3-3---
toka esto 2 veces


en el solo de la guitarra nomas toka el intro otra vez

y ya es toda la rola
asi es el orden de la kancion

Intro
Verso
Coro
Intro
Verso
Verso
Coro
Intro

y ya es todo XD
dudas o lo k sea mi msn es wiwito_20@
Suggest correction
Give kudos to tab author, rate the tab!
1 2 3 4 5
comments
print report bad tab
guest
You may want to rate the tab now too:
select rating
Wanna post a correction for this tab? Suggest correction