Oops, an error
Loading. Please wait.

El Féretro Bass Tab

50 views 3 this week
no commentswrite comment
1 2 3 4 5
3 more votes to show rating
add to favorites
launch autoscroll
font size
0
reset
guitar tuner
×
Best way to learn
"El Féretro"
Autoscroll
slow
fast
+/-
esc
set tempo
stop
--INTRO--

G|-------------
D|-------------
A|-(5)---------
E|-----(2)-(1)-

--TEMA--

G|---------------------------------------------------------
D|---------------------------------------------------------
A|-------(4)---4-3-------(4)---4-3-5-5-5-5-5-5-5-5-5-5-5-5-
E|-2-2-2-----2-----2-2-2-----2-----------------------------

G|-------------------------------------------------
D|-------------------------------------------------
A|-------------------------------------------------
E|-2-2-2-2-2-2-2-2-2-2-2-2-1-1-1-1-1-1-1-1-1-1-1-1-


REPITE SIEMPRE LO MISMO
Suggest correction
Give kudos to tab author, rate the tab!
1 2 3 4 5
comments
print report bad tab
guest
You may want to rate the tab now too:
select rating
Wanna post a correction for this tab? Suggest correction