Oops, an error
Loading. Please wait.

Sé Que No Chords

70 views 1 this week
no commentswrite comment
1 2 3 4 5
3 more votes to show rating
add to favorites
×
Save as Personal and add changes to this tab that will be seen only by you. Learn more ›
×
You can save this tab as Personal to edit and correct it or add notes. All changes will be seen only by you. Learn more »
save as personal
new!
launch autoscroll
font size
0
reset
transpose
0
reset
display chords
guitar tuner
Autoscroll
slow
fast
+/-
esc
set tempo
stop
Strumming
There is no strumming pattern for this song yet. and get +5 IQ
Transcripción: Marcelo Villar (Río Cuarto, Córdoba)


ACORDES: A   577655
         A#  688766

 
INTRODUCCIÓN:(con guitarra o bajo, el ritmo es igual en toda la canción) 

5|---7-----7---8---8-8---8-----------------------
6|-5---5-5---5---6-----6-------------------------

(y se repite)


1|--12-12-11-9------------12-12-11-9-------------
2|-------------12-10-9---------------12-10-9-----
3|-----------------------------------------------
4|-----------------------------------------------
5|-----------------------------------------------
6|-----------------------------------------------


1|--12-12-11-9-----------------------------------
2|-------------12-10-9--7-9-7-9-7-5-4-5-4-4h5-7--
3|-----------------------------------------------
4|-----------------------------------------------
5|-----------------------------------------------
6|-----------------------------------------------

h= hammer 

A
El fuego me consume la mente
A# 
mi cuerpo inquieto te busca 
A
el fuego me consume la mente 
A#
mi cuerpo inquieto te busca.

 
A                           A#
Dando vueltas en una cama vacía y sucia
A                           A# 
dando vueltas en una cama vacía y sucia 


A
Sé que no vas a volver,
A#
sé que no, sé que no vas a volver
A                               A#
se que no vas a volver a ella jamás

A 
El que toca el fuego se quema
A# 
el que busca al demonio lo conoce 
A
el que toca el fuego se quema 
A#
el que busca al demonio lo conoce

 
A
sé que no vas a volver, 
A#
sé que no, sé que no vas a volver 
A                               A#
se que no vas a volver a ella jamás 
                          
No vas a volver a envolverte en sonidos negros 

y humo dulce otra vez. 

no vas a volver a envolverte en sonidos negros 

y humo dulce otra vez 

Se que no vas a volver a comprender 

que por más que pase el tiempo yo nunca te olvidaré. 


Cualquier duda, consulta o sugerencia: marcelovillar@
Suggest correction
Give kudos to tab author, rate the tab!
1 2 3 4 5
comments
print report bad tab
guest
Wanna post a correction for this tab? Suggest correction