Oops, an error
Loading. Please wait.

Todo Lo Daría Bass Tab

28 views 1 this week
no commentswrite comment
1 2 3 4 5
3 more votes to show rating
add to favorites
launch autoscroll
font size
0
reset
guitar tuner
×
Best way to learn
"Todo Lo Daría"
Autoscroll
slow
fast
+/-
esc
set tempo
stop
 Me gusta esta canción y me llega.. jaja
Ademas va para ti Solecito!! gracias por ser bn la onda
y bn buena amiga en estas epocas pasadas dificilonas..
con eso d q te encanta TTM no hay mejor cancion pa sacar en bajo
q Todo Lo Daría!


(0.2)
G||-----------------------------------------------------------|
D||------------------------------------------------2-----2----|
A||-----------------------------------------44~-24~-4--24-42--|
E||---55~-35~-35~--35~3~-22~-02~-02---02~0~-------------------|


G||----------------------------------------------------------|
D||----------------------------------------------2-----2-----|
A||---------------------------------------44~-24~-4--24-42---|
E||-55~-35~-35~--35~3~-22~-02~-02---02~0~--------------------|


G||----------------------------------------------------------|
D||----------------------------------------------2-----2-----|
A||---------------------------------------44~-24~-4--24-42---|
E||-55~-35~-35~--35~3~-22~-02~-02---02~0~--------------------|


G||----------------------------------------------------------|
D||----------------------------------------------2-----2-----|
A||---------------------------------------44~-24~-4--24-42---|
E||-55~-35~-35~--35~3~-22~-02~-02---02~0~--------------------|


G||----------------------------------------------------------|
D||----------------------------------------------2-----2-----|
A||---------------------------------------44~-24~-4--24-42---|
E||-55~-35~-35~--35~3~-22~-02~-02---02~0~--------------------|


Y asi toda la canción... hasta el final que termina en La..
G||----------------------------------------------------------|
D||----------------------------------------------2-----2-----|
A||---------------------------------------44~-24~-4--24-42---|
E||-55~-35~-35~--35~3~-22~-02~-02---02~0~-----------------5~-|
Suggest correction
Give kudos to tab author, rate the tab!
1 2 3 4 5
comments
print report bad tab
guest
You may want to rate the tab now too:
select rating
Wanna post a correction for this tab? Suggest correction