Oops, an error
Loading. Please wait.

Tu Alma Mía Bass

73 views 3 this week
no commentswrite comment
1 2 3 4 5
3 more votes to show rating
add to favorites
launch autoscroll
font size
0
reset
guitar tuner
×
Best way to learn
"Tu Alma Mía"
Autoscroll
slow
fast
+/-
esc
set tempo
stop
G||------------------|------------------|------------------|------------------|
D||------------------|--INTRO GUITARRA--|------------------|------------------|
A||------------------|------------------|------------------|------------------|
E||------------------|------------------|------------------|------------------|

INTRO BAJO

-----------------------|-----------------------|-----------------------|
-----------------------|-----------------------|-----------------------|
--7---------7-------6--|--7---------7-------6--|--7---------7-------6--|
-------7---------7-----|-------7---------7-----|-------7---------7-----|

-----------------------|-----------------------|-----------------------|
-----------------------|-----------------------|-----------------------|
--7---------7-------6--|--7---------7-------6--|--7---------7-------6--|
-------7---------7-----|-------7---------7-----|-------7---------7-----|

-----------------------|-----------------------|-----------------------|
-----------------------|-----------------------|--7---------7-------7--|
--7---------7-------6--|--7---------7-------6--|-------7---------7-----|
-------7---------7-----|-------7---------7-----|-----------------------|

----------------------|----------------------|-----------------------|
--5---------5---------|----------------------|-----------------------|
-------5---------5----|--2---------2---------|--2---------2-------2--|
----------------------|-------2---------2----|-------2---------2-----|

VERSO 1
Si me equivocara otra vez???
-----------------------|-----------------------|-----------------------|
-----------------------|-----------------------|-----------------------|
--7---------7-------6--|--7---------7-------6--|--7---------7-------6--|
-------7---------7-----|-------7---------7-----|-------7---------7-----|

-----------------------|-----------------------|----------------------|
-----------------------|--7---------7-------7--|--5---------5---------|
--7---------7-------6--|-------7---------7-----|-------5---------5----|
-------7---------7-----|-----------------------|----------------------|

----------------------|-----------------------|-----------------------|
----------------------|-----------------------|-----------------------|
--2---------2---------|--2---------2-------2--|--7---------7-------6--|
-------2---------2----|-------2---------2-----|-------7---------7-----|

-----------------------|-----------------------|-----------------------|
-----------------------|-----------------------|-----------------------|
--7---------7-------6--|--7---------7-------6--|--7---------7-------6--|
-------7---------7-----|-------7---------7-----|-------7---------7-----|

-----------------------|----------------------|----------------------|
--7---------7-------7--|--5---------5---------|----------------------|
-------7---------7-----|-------5---------5----|--2---------2---------|
-----------------------|----------------------|-------2---------2----|

----------------------|
----------------------|
--2---------2---------|
-------2---------2----|

VERSO 2
Si adelita se fuera con otro???
|----------------------|----------------------|
|------------9---------|----------------------|
|--7--------------9----|--7---------7---------|
|-------7--------------|-------7---------7----|

----------------------|----------------------|----------------------|
--7---------7---------|--9---------9---------|--9---------9---------|
-------7---------7----|-------9---------9----|-------9---------9----|
----------------------|----------------------|----------------------|

----------------------|----------------------|---------------------|
----------------------|--9---------9---------|---------------------|
--7---------7---------|-------9---------9----|--7---------7--------|
-------7---------7----|----------------------|-------7-------------|

----------------------|----------------------|----------------------|
------------9---------|----------------------|--7---------7---------|
--7--------------9----|--7---------7---------|-------7---------7----|
-------7--------------|-------7---------7----|----------------------|

----------------------|----------------------|----------------------|
--9---------9---------|--9---------9---------|----------------------|
-------9---------9----|-------9---------9----|--7---------7---------|
----------------------|----------------------|-------7---------7----|

----------------------|---------------------|------------------|
--9---------9---------|---------------------|------------------|
-------9---------9----|--7---------7--------|------------------|
----------------------|-------7-------------|------------------|


CORO

Si me equivocara otra vez???

|----------------------------    ||--------------------------|
|--------------------------      ||--------------------------|
|---7--7--7--7--7--7--7--7-  x2  ||--------------------------|
|----------------------------    ||---5--5--5--5--3--3--3--3-|

--------------------------||
--------------------------||
---------------7--7--7--7-||
---7--7--7--7-------------||

(Tocas dos veces lo de arriba y terminas con este)

--------------------------------||--------------------------|
--------------------------------||--------------------------|
----7--7--7--7--7--7--7?7   x2  ||--------------------------|
--------------------------------||---5--5--5--5--3--3--3--3-|

-------------------------|------------------||
-------------------------|------------------||
--------------7-----7----|------------------||
---7--7--7--7----7-------|------------------||


Se repite:

VERSO 1
CORO


PARA TODA LA BANDA Y ARRIBA EL 'TLAKUACHE'
Suggest correction
Give kudos to tab author, rate the tab!
1 2 3 4 5
comments
print report bad tab
guest
You may want to rate the tab now too:
select rating
Wanna post a correction for this tab? Suggest correction