Oops, an error
Loading. Please wait.

Tu Alma Mía / Adelita Tab

337 views 3 this week
no commentswrite comment
1 2 3 4 5
3 more votes to show rating
add to favorites
launch autoscroll
font size
0
reset
how to read this tab
guitar tuner
×
Best way to learn
"Tu Alma Mía / Adelita"
Autoscroll
slow
fast
+/-
esc
set tempo
stop
Intro

e---7---7---7---7---7------3------5------5/7----------|
B---8---8---8---8---8------5------7------7/8----------|
G-----------------------------------------------------|
D-----------------------------------------------------|
A-----------------------------------------------------|
E-----------------------------------------------------|  x2

e---8--10---8---6---7---6---5-----------------7---8---7---5---6---5---4--|
B--10--10--10---8---9---8---7-----------------8---8---8---7---8---7---6--|
G------------------------------------------------------------------------|
D------------------------------------------------------------------------|
A------------------------------------------------------------------------|
E------------------------------------------------------------------------|

e---2---3---4---3---2---3---2---3---0--------|
B---4---5---6---5---4---5---4---5---0--------|
G-----------------------------------0--------|
D-----------------------------------0--------|
A-----------------------------------0--------|
E-----------------------------------0--------|

Intro x2  Em Am G B7 Em

Verso 1      Guitarra 1 toca el intro en verso 1 y 2

Guitarra 2  Marcha o corrido  bajo/acorde/bajo/acorde?


Em
Si me equivocara otra vez
si me enamorara de ti otra vez
Am
la alegría en este día
G
cuando pose tu alma mía
B7                      Em
la última piedra sobre mi corazón

Verso 2
Em
Si me equivocara otra vez
si me olvidara de cuanto te amé
Am
No te olvides vida mía
G
de posar con alegría
B7                      Em
la última piedra sobre mi corazón

       (Ritmo: Marcha o corrido)
 Coro:
       E        B7      E    E7
Si Adelita se fuera con otro
         A                    B
la seguiría por tierra y por mar
           B7                  E
si es por mar en un buque de guerra
            B7                   E
si es por tierra en un tren militar


       E        B7            E   E7
Si Adelita quisiera ser mi esposa
         A                  B
y si Adelita ya fuera mi mujer
          B7                E
le compraría un vestido de seda
         B7                    E
la llevaría en un Jeep al cuartel

Ritmo: Rápido
                       Em
Si me equivocara otra vez
si me enamorara de ti otra vez
Am
la alegría en este día
G
cuando pose tu alma mía
B7                      Em
la ultima piedra sobre mi corazón

Em
Si me equivocara otra vez
si me enamorara de ti otra vez
Am
No te olvides vida mía
G
Que pose con alegría
B7                      Em
la última piedra sobre mi corazón

Em
Si me equivocara otra vez
si me enamorara de ti otra vez
Am
la alegría en este día
G
cuando pose tu alma mía
B7                      Em
la última piedra sobre mí

(Lento)
                       Em
Si me equivocara otra vez
si me olvidara de cuánto te amé
Am
La alegría en este día
G
cuando pose tu alma mía
B7                     Em
la última piedra sobre el cajón

Em
si me enamorara otra vez
si me olvidara de cuanto gasté
Am
No te olvides vida mía
G
de buscar con alegría
B7                        Em
la foto en el fondo de aquel cajón

(Cada vez más rápido)

Em
Si me enamorara otra vez
si me olvidara de ti otra vez
Am
La alegría en este día
G
cuando pose tu alma mía
B7                      Em
la última piedra sobre mi corazón

(más rápido)

Em
Si me equivocara otra vez
si me enamorara de ti otra vez
Am
La alegría en este día
G
cuando pose tu alma mía
B7                      Em
la última piedra sobre mi corazón

Em
Si me enamorara otra vez
si me equivocara de ti otra vez
Am
No te olvides vida mía
G
de posar con alegría
B7                      Em
la última piedra sobre mi corazón

Em
Si me enamorara otra vez
si me equivocara de ti otra vez
Am
La alegría en este día
G
cuando pose tu alma mía
B7                      Em
la última piedra sobre mí.

Acordes

   Em  Am   G   B7  E   B   A   E7
e---0---0---3---2---0---2---0---0---|
B---0---1---0---0---0---4---2---3---|
G---0---2---0---2---1---4---2---1---|
D---2---2---0---1---2---4---2---0---|
A---2---0---2---2---2---2---0---2---|
E---0---0---3---0---0---2---0---0---|


La letra está bien y los tonos creo que también...
Está para acompañar con guitarra criolla.
Saludos desde Madariaga!!! Martín.
Suggest correction
Give kudos to tab author, rate the tab!
1 2 3 4 5
comments
print report bad tab
guest
You may want to rate the tab now too:
select rating
Wanna post a correction for this tab? Suggest correction