Oops, an error
Loading. Please wait.

Tu Alma Mía / Adelita Bass

184 views 1 this week
no commentswrite comment
1 2 3 4 5
3 more votes to show rating
add to favorites
×
Save as Personal and add changes to this tab that will be seen only by you. Learn more ›
×
You can save this tab as Personal to edit and correct it or add notes. All changes will be seen only by you. Learn more »
save as personal
new!
launch autoscroll
font size
0
reset
guitar tuner
Autoscroll
slow
fast
+/-
esc
set tempo
stop
Mi primer Tab y se la dedico a todos los amantes de este bello instrumento, 'el bajo'
Ademas si eres un principiante y quieres tocar un instrumento bien vacano pues no toques
guitarra listo


¡¡¡MADE IN COLOMBIA!!!

Afinación Estandar E-A-G-D
Intro Guitarra
Bajo Segunda parte


Parte Suave -  Si me equivocara otra vez

Fig1                                                 (x3)

     Q  Q  Q  Q    E   Q
G|-----------------------------------------------------|
D|-----------------------------------------------------|
A|---3-----3------23-----------------------------------|
E|------3-----3--------3------------------------------o|

Entra guitarra - Repetir (x4) Fig uno


Fig 2                                                (x1) 

     Q. Q. Q. Q. Q. Q. Q.  Q.   Q.  Q. Q.  Q.  Q. Q. Q.
G|-----------------------------------------------------|
D|-----------------------------------------------------|
A|------4-----4------2------2-------------------3----2-|
E|o--3-----3------3-----3-------3---2---3---2------3--o|


Parte -  Si adelita se fuera con otro ...

      Q  Q  Q  Q   Q  Q   Q   Q        
G|-----------------------------------------------------|
D|-----------------------------------------------------|
A|-------3-----3------4-------4-----------------------o|
E|o---3-----3------3------3----------------------------|


Parte fuerte  - ¡¡¡Si me equivocara otra vez!!!...

                                                     (x1)
    SSSSSSSSSSSSSS SSSSSSSSS SSSSSSSS SSSSSSSSSS 
G|-----------------------------------------------------|
D|-----------------------------------------------------|
A|o-44444444444444-333333333-22222222-5555555555------o|
E|-----------------------------------------------------|


Tocar Fig 1 y Fig 2 Lento he ir subiendo la velocidad moderadamente
Hasta llegar a la segunda Parte fuerte


Ultimas dos notas 


A|----3---4--------------------------------------------*|


Repitanla varias Veces y la cojen facil
Aunque en nunca se repita ninguna parte pueden sacar la melodia como
la quieran sacar y les suene mejor, pueden usar esta tab como base a
la cancion


Comentarios, Dudas,quejas, reclamos, saludos y demas envienlos a ...
                    ferreirin@


Tab echa por el LORD DEL BASS NEGRO
Julián Ferreira


SUERTE
Suggest correction
Give kudos to tab author, rate the tab!
1 2 3 4 5
comments
print report bad tab
guest
Wanna post a correction for this tab? Suggest correction