Oops, an error
Loading. Please wait.

Hablo De Mí Tab

28 views 1 this week
no commentswrite comment
1 2 3 4 5
3 more votes to show rating
add to favorites
launch autoscroll
font size
0
reset
how to read this tab
guitar tuner
Autoscroll
slow
fast
+/-
esc
set tempo
stop
Help us to improve Ultimate-Guitar.com Take our survey!
×
intro :

G-G-G-G


G                     D        Em            C
  aun trato de encontrar un sitio en este lugar

G                  D       Em            C
  Donde pueda encajar sin ser algo especial...


G5 - D5 - Em - C C/B

G5 - D5 - Em - C  C


estrofa: G5- D5- Emm C5 (2 veces)

No puedo estar en un lugar hablando un segundo sin hacer algo mal

incapaz de interesar a alguien mas, sin temerle al hablar...


e|--7-------|
B|----8-----|
G|------7---| ( 8 veces )
D|----------|
A|----------|
E|----------|

A veces kisiera respirar sin herir a alguien mas

A veces kisiera respirar sin herir a alguien mas


intermedio:

e|------------------------------------------------|
B|------------------------------------------------|
G|------------------------------------------------|
D|--55-555-555-55-4-55-555-555-55-7-5///----------|
A|------------------------------------------------|
E|------------------------------------------------|


estrofa: G5- D5- Emm C (2 veces)

tratar de ser normal sin dejar de ser yo

y fingir ke todo esta bien sin sentirme aun peor...


e|------------------------------------------------|
B|------------------------------------------------|
G|------------------------------------------------|
D|--55-555-555-55-4-55-555-555-55-7---------------|
A|------------------------------------------------|
E|------------------------------------------------|

e|------------------------------------------------|
B|------------------------------------------------|
G|------------------------------------------------|
D|--99-999-999-99-10-99-999-9-77-777-7------------|
A|------------------------------------------------|
E|------------------------------------------------|


e|--7-------|
B|----8-----|
G|------7---| ( 8 veces )
D|----------|
A|----------|
E|----------|


A veces kisiera respirar sin herir a alguien mas

A veces kisiera respirar sin herir a alguien mas

e|------------------------------------------------|
B|------------------------------------------------|
G|------------------------------------------------|
D|--55-555-555-55-4-55-555-555-55-7---------------|
A|------------------------------------------------|
E|------------------------------------------------|

e|------------------------------------------------|
B|------------------------------------------------|
G|------------------------------------------------|
D|--99-999-999-99-10-99-999-9-77-777---5/--5------|
A|-------------------------------------5/--5------|
E|-------------------------------------3/--3------|

FIN
Suggest correction
Give kudos to tab author, rate the tab!
1 2 3 4 5
comments
print report bad tab
guest
You may want to rate the tab now too:
select rating
Wanna post a correction for this tab? Suggest correction