Oops, an error
Loading. Please wait.

Como Haces Daño Tab

1 view 1 this week
no commentswrite comment
1 2 3 4 5
3 more votes to show rating
add to favorites
launch autoscroll
font size
0
reset
how to read this tab
guitar tuner
Autoscroll
slow
fast
+/-
esc
set tempo
stop
Help us to improve Ultimate-Guitar.com Take our survey!
×
Esta cancion esta muy chida pero un poco dificil de cantar,
espero les guste esta baladita.

 A                    E   Riff(1)
Ya esta listo tu equipaje,
A                      E  Riff(2)
te esta esperando tu viaje
G#m               A           E
no mires hacia atras ho llorare

A                    E
El reloj marco las nueve
A                E
Y la vida se detiene
G#m            A   G#m
no me veas llorar no
A       B
y el adios

            E
Como haces daño
     C#m
sin ti no se vivir
            F#m
como haces daño
  A              B
amor regresa ha mi

            E
Como haces daño
     C#m
sin ti no soy feliz
            F#m
como haces daño
  A              B
amor vuelve por mi

 A                E
Mi copa sea terminado
A                   E
y lo nuestro ha su lado
G#m              A
el dolor vuelve ya
             E
vuelve otra vez

A                   E
No me olvido del pasado
A                 E
de todo lo que pasamos
G#m               A   G#m
no mires hacia atras no
A     B
el adios

            E
Como haces daño
     C#m
sin ti no se vivir
            F#m
como haces daño
  A              B
amor regresa ha mi

            E
Como haces daño
     G#m
sin ti no soy feliz
            F#m
como haces daño
  A              B
amor vuelve por mi.

Solo
E|------|-------------|---------------|----9-7-------|
B|------|-------------|----5-7-7/9-7v-|-7-9---10-9-7-|
G|------|-------------|-4-6-----------|--------------|
D|----2-|-4-6-6/7-6-4-|---------------|--------------|
A|-2-4--|-------------|---------------|--------------|
E|------|-------------|---------------|--------------|

E|-9-12-9-12/14-12---------|---12--12--14/16-16-|
B|----------------12/14-12-|-12--12--12---------|
G|-------------------------|--------------------|
D|-------------------------|--------------------|
A|-------------------------|--------------------|
E|-------------------------|--------------------|

E|----------------------------------|
B|-12-10-9---7/9-9--7-10-9/10-9-7-7-|
G|---------9------------------------|
D|----------------------------------|
A|----------------------------------|
E|----------------------------------|
  Fin del solo

Riff(1)               Riff(2)
E|--------------|    E|-------------------|
B|-12b14-14r12v-|    B|-10h9-10/12-10h9---|
G|--------------|    G|-----------------8-|
D|--------------|    D|-------------------|
A|--------------|    A|-------------------|
E|--------------|    E|-------------------|

          A
Estoy muriendo lento
      C#m
pero muy adentro
       F#m               B
veo pasar el tiempo sin ti

            E
Como haces daño
     C#m
sin ti no se vivir
            F#m
como haces daño
  A              B
amor regresa ha mi

            E
Como haces daño
     C#m
sin ti no soy feliz
            F#m
como haces daño
  A              B      E
amor vuelve por mi por mi
C#m  F#m A B E
UUUUUUU

Eso es todo amigos espero les guste
talves tenga errores pero ya que.
Suggest correction
Give kudos to tab author, rate the tab!
1 2 3 4 5
comments
print report bad tab
guest
You may want to rate the tab now too:
select rating
Wanna post a correction for this tab? Suggest correction