Oops, an error
Loading. Please wait.

Donde Estás Amor Tab

52 views 1 this week
no commentswrite comment
1 2 3 4 5
3 more votes to show rating
add to favorites
×
Save as Personal and add changes to this tab that will be seen only by you. Learn more ›
×
You can save this tab as Personal to edit and correct it or add notes. All changes will be seen only by you. Learn more »
save as personal
new!
launch autoscroll
font size
0
reset
how to read this tab
guitar tuner
Autoscroll
slow
fast
+/-
esc
set tempo
stop
aca otra cancion muy buena q saque al oido :X


e|--------------------------------------------------
b|------5-5-5-6-5------------5-5-5-6-5--------------
G|----5-----------7-5------5-----------7-5----------
D|--7--------------------7--------------------------
A|--------------------------------------------------
E|--------------------------------------------------


e|------------5-------------------5-----------------
b|----5-8-8-8---8-6-5-----5-8-8-8---8-6-5-----------
G|--5-------------------5---------------------------
D|--------------------------------------------------
A|--------------------------------------------------
E|--------------------------------------------------


e|------5-5-5-8-7--7-5---5------------5-5-5-8-7--7-5---5---------/17--
b|--5-8----------------8---8-5-----5-8----------------8---8-5---------
G|--------------------------------------------------------------------
D|--------------------------------------------------------------------
A|--------------------------------------------------------------------
E|--------------------------------------------------------------------


e|--15-15-15------------17-17-17-15-----------------
b|-----------18-17-15---------------18-17-----------
G|--------------------------------------------------
D|--------------------------------------------------
A|--------------------------------------------------
E|--------------------------------------------------


e|--15-15-15-----------17-17-17-20-17---------------
b|-----------18-17-15-------------------------------
G|--------------------------------------------------
D|--------------------------------------------------
A|--------------------------------------------------
E|--------------------------------------------------
Suggest correction
Give kudos to tab author, rate the tab!
1 2 3 4 5
comments
print report bad tab
guest
Wanna post a correction for this tab? Suggest correction