Oops, an error
Loading. Please wait.

Mil Amores Tab

32 views 1 this week
no commentswrite comment
1 2 3 4 5
3 more votes to show rating
add to favorites
launch autoscroll
font size
0
reset
how to read this tab
guitar tuner
×
Best way to learn
"Mil Amores"
Autoscroll
slow
fast
+/-
esc
set tempo
stop
bueno aka les dejo la cancion mil amores esta imcompleto si eske alguien
tiene la segudan parte mandamela


1---------------------3----------------------------------------------------
2---5--3--------3---5----5--8--5---10--12--12--10--8--10--8----------------
3---------4---4---4------------------------------------------9-------------
4--------------------------------------------------------------------------
5--------------------------------------------------------------------------
6--------------------------------------------------------------------------

1--------------------3-----------------------------------------------121212
2---5--3---3--5--5--8--5--10-12-12--10-8-10--5-8-5-10-12-12-10-8-10-8------
3---------4-4-4--------------------------------9--------------------------9
4--------------------------------------------------------------------------
5--------------------------------------------------------------------------
6--------------------------------------------------------------------------


mi correo es th3_b4d_boys@
Suggest correction
Give kudos to tab author, rate the tab!
1 2 3 4 5
comments
print report bad tab
guest
You may want to rate the tab now too:
select rating
Wanna post a correction for this tab? Suggest correction