Oops, an error
Loading. Please wait.

Mil Pedazos Tab

16 views 1 this week
no commentswrite comment
1 2 3 4 5
3 more votes to show rating
add to favorites
launch autoscroll
font size
0
reset
how to read this tab
guitar tuner
Autoscroll
slow
fast
+/-
esc
set tempo
stop
Help us to improve Ultimate-Guitar.com Take our survey!
×
aca les dejo la entrada de estacancion xvr q saque al oido :X


e|--------------------3-------------------------------------------
b|--------3-3-3-3-3-3---5-3--------------------------5------------
G|------4-------------------2/4-2-------4-4-4-4-4-4----5-4-4/5-4--
D|----5-------------------------------5---------------------------
A|--5-------------------------------5-----------------------------
E|----------------------------------------------------------------


e|---------------------------5h7-5h7h5--------------
b|-5h3---3h5-5----7h5---5h7------------8-5-5--------
G|-----5--------------7-----------------------------
D|--------------------------------------------------
A|--------------------------------------------------
E|--------------------------------------------------  x2


e|--7----5-7-5---5------8------7-8-7----7-----------
b|--8--8-------8---7----10--10-------10---8---------
G|--7-------------------9---------------------------
D|--------------------------------------------------
A|--------------------------------------------------
E|--------------------------------------------------


e|--7----5-7-5---5------------------------------------
b|--8--8-------8---7---7/10--8-7-5-------------7-8----
G|--7------------------------------------7-7-9--------
D|----------------------------------------------------
A|----------------------------------------------------
E|----------------------------------------------------
Suggest correction
Give kudos to tab author, rate the tab!
1 2 3 4 5
comments
print report bad tab
guest
You may want to rate the tab now too:
select rating
Wanna post a correction for this tab? Suggest correction