Oops, an error
Loading. Please wait.

Mi Corazón Está Dispuesto Tab

69 views 1 this week
no commentswrite comment
1 2 3 4 5
3 more votes to show rating
add to favorites
launch autoscroll
font size
0
reset
how to read this tab
guitar tuner
×
Best way to learn
"Mi Corazón Está Dispuesto"
Autoscroll
slow
fast
+/-
esc
set tempo
stop
este canto consiste en un bajeo muy sencillo  los acordes
 son los sig: Cm Bb G  Am
y la introduccion esta en Cm:

G||----5555555555-5-3-5-3---------------------------|
D||-----------------------5-3-5-3-1-0---------------|
A||-----------------------------------(3)-----------|
E||-------------------------------------------------|
una vez terminando esta introduccion se empieza un bajeo apartir de
 el
(3) Cm dela siguiente manera y se
repite hasta el coro
(*)      Cm        Bb        Cm      Bb
G||---------|---------|---------|---------|
D||---------|--1-3----|---------|--1-3----|
A||(3)--3-2-|1-----1--|-3---3-2-|1-----1--|
E||---3-----|--------1|---3-----|--------1|
  cuando ser realiza el cambio al coro  se realiza lo siguiente:
   ohh señoooor!!
         G
G||----------------|
D||----------------|
A||---5---5---5----|
E||-3---3---3------|

coro!!!
    cantare a       jehova           con todo mi     corazon
         Am             G                  Am             G
G||---------------|-----------------|------------|----------------|
D||---------------|-----3-5-3-------|------------|-----3-5-3------|
A||---7---7-------|---5-------5-3-5-|---7---7----|---5-------5-3-5|
E||-5---5---------|-3---------------|-5---5------|-3--------------|
     solo a ti         alabare        oh mi señor    oh mi señor
         Am                G               Bb
G||---------------|-----------------|-----------------|
D||---------------|-----------------|-----------------|
A||---7---7-------|---5---5---------|-1---1---1---1---|
E||-5---5---------|-3---3-----------|---1---1---1---1-|
oh mi señor
    Cm
G|--------------------|
D|--------------------|
A|-3---3---3---3------|
E|---3---3---3--------|
en ultimo tono de la tablatura que es Cm se mantiene hasta
iniciar otra vez
la voz es decir comienza de nuevo  desde el [*]

 dedicada a al centro cristiano guiados por el espiritu de dios
 y  A MI amigo y hermano  fernando
cualquier duda  mi correo es hr39_army@
   bendiciones ...
Suggest correction
Give kudos to tab author, rate the tab!
1 2 3 4 5
comments
print report bad tab
guest
You may want to rate the tab now too:
select rating
Wanna post a correction for this tab? Suggest correction