Oops, an error
Loading. Please wait.

La Policía Chords

version 1
version 1

Whole song

8 views 1 this week
no commentswrite comment
1 2 3 4 5
3 more votes to show rating
add to favorites
launch autoscroll
font size
0
reset
transpose
0
reset
display chords
guitar tuner
×
Best way to learn
"La Policía"
Autoscroll
slow
fast
+/-
esc
set tempo
stop
 Insisto :  El tema tiene que ser primero escuchado por queste
tiene otros tiempos.

G  C      D        G
LA POLICIA SIEMPRE ME MOLESTA
G      C       D          G
CUANDO DESCARTO NUNCA SE DAN CUENTA
G             C    A              D
NO ME PUEDEN APRESAR, NO ME PUEDEN APRESAR
G             C    A              D
NO ME PUEDEN APRESAR, NO ME PUEDEN APRESAR


G    C       D            G
VOY CAMINANDO SIEMPRE POR LA IZQUIERDA
G         C D           G        
Y NUNCA A ENTRO A NINGUNA IGLESIA
G           C       A            D
NO ME VOY A CONFESAR, NO ME VOY A CONFESAR
G           C       A            D
NO ME VOY A CONFESAR, NO ME VOY A CONFESAR


G      C      D          G
YO YA NO TENGO MINUTOS DE PASIENCIA
G        C       D         G
QUIERO MANDARLOS A TODOS A LA MIERDA
G              C     A               D            
QUE SE VALLAN A CAGAR, QUE SE VALLAN A CAGAR
G              C     A               D            
QUE SE VALLAN A CAGAR, QUE SE VALLAN A CAGAR


HAY UN MOMENTO EN QUE LA GUITARRA LUICHI HACE UN PUNTEO QUE DICE ASI

E----------------------------------------
B----------------------------------------
G----------------------------------------     
D--------------2-------------------------       
A---------2-33---3-555--3--2-------------
E---33--5---------------------5---33-----


E----------------------------------------
B----------------------------------------
G----------------------------------------     
D--------------2-------------------------       
A---------2-33---3-555--3----------------
E---33--5-----------------4-555----------
Suggest correction
Give kudos to tab author, rate the tab!
1 2 3 4 5
comments
print report bad tab
guest
You may want to rate the tab now too:
select rating
Wanna post a correction for this tab? Suggest correction