Oops, an error
Loading. Please wait.

Libérame Bass Tab

16 views 1 this week
no commentswrite comment
1 2 3 4 5
3 more votes to show rating
add to favorites
launch autoscroll
font size
0
reset
guitar tuner
×
Best way to learn
"Libérame"
Autoscroll
slow
fast
+/-
esc
set tempo
stop
Intro
  G ||---------------------------------------------||
  D ||---------------------------------------------||
  A ||--0--3-----5---------------------------------||
  E ||---------------------------------------------||

        
  G ||---------------------------------------------||
  D ||---------------------------------------------||cuando empieza a cantar
  A ||--0--3---------0--3--5----0--3------0---3----||la copa se lleno...
  E ||--------3-----------------------3----------3-||

    


  G ||----------------------------------------------||
  D ||----------------------------------------------|| coro: liberame
  A ||---0---3------0---3-------0---3----5-----0---3---5-||
  E ||----------3----------3------------------------||


    Solo 
  G ||---------------------------------------------||
  D ||---------------------------------------------||
  A ||----------5----3---2-------------------------||
  E ||---------------------------------------------||
Suggest correction
Give kudos to tab author, rate the tab!
1 2 3 4 5
comments
print report bad tab
guest
You may want to rate the tab now too:
select rating
Wanna post a correction for this tab? Suggest correction