Oops, an error
Loading. Please wait.

Altisimo Señor Tab

version 1
version 1

Whole song

92 views 1 this week
no commentswrite comment
1 2 3 4 5
3 more votes to show rating
add to favorites
×
Save as Personal and add changes to this tab that will be seen only by you. Learn more ›
×
You can save this tab as Personal to edit and correct it or add notes. All changes will be seen only by you. Learn more »
save as personal
new!
launch autoscroll
font size
0
reset
how to read this tab
guitar tuner
Autoscroll
slow
fast
+/-
esc
set tempo
stop
1------------------------------
2--7-----5-----3-2---2---------
3------0------------0----------
4------------------------------
5----------------0-------------
6--0-----0---------------------

1----------------------------
2---3---------2---------0----
3-------4----------2---------
4-----4----------2-----------
5----------------------------
6----------------------------

1-----------------------------------------------------
2------------------0--------------------------1/7s---0
3---------------0----------4---2----------------------
4--0---------2--------------------2--4--2-------------
5------------------------------------------2----------
6--------0--------------------------------------------

1------------------------------
2--7-----5-----3-2---2---------
3------0------------0----------
4------------------------------
5----------------0-------------
6--0-----0---------------------

 1----------------------------
 2---3---------2---------0----
 3-------4----------2---------
 4-----4----------2-----------
 5----------------------------
 6----------------------------

1-----------------------------------------------2
2------------------0----------------------------3
3---------------0----------4---2----------------2
4--0---------2--------------------2--4--2---0--
5----------------------------------------------
6--------0-------------------------------------


    D                              F#m  Bm
Fue algo así como lluvia en tierra seca.
   G                   Em               A
Un rayo de luz de repente en mi oscuridad.
    D                                F#m  Bm
Fue algo así como estar en cadena perpetua
  G              Em         Cmaj7         A
y una mañana escuchar te doy libertad.
  Bm                                   F#m   Bm
Y siendo un vil pecador hoy como en tu mesa.
G             Em        Cmaj7          A7
Sólo tu gracia le basta a mi corazón.

                 1----------------------------
                 2---3---------2---------0----
                 3-------4----------2---------
                 4-----4----------2-----------
                 5----------------------------
  D       F#m    6----------------------------
Altísimo Señor en mi bajeza
       Em                  A           F#m         Bm
me has mirado y me has tendido la escalera de tu amor.
                          2---7---5--3----------------
      G           A       3-----0--0-----------------
Tu perdón me puso alas ¡oh mi Dios!
  G          F#m  Em   Cmaj7 Em  A
Altísimo Señor entre mis sombras
     G          A            D
Tu palabra alumbró a mi corazón.

1------------------------------
2--7-----5-----3-2---2---------
3------0------------0----------
4------------------------------
5----------------0-------------
6--0-----0---------------------

 1----------------------------
 2---3---------2---------0----
 3-------4----------2---------
 4-----4----------2-----------
 5----------------------------
 6----------------------------

1-----------------------------------------------2
2------------------0----------------------------3
3---------------0----------4---2----------------2
4--0---------2--------------------2--4--2---0--
5----------------------------------------------
6--------0-------------------------------------

Fue algo así como estar en el abismo más hondo
y unos segundos después sobre una nube volar.
Fue algo así como ser un peregrino cansado
que toca la puerta y le dicen: 'te tengo un lugar'

1------------------------------
2--7-----5-----3-2---2---------
3------0------------0----------
4------------------------------
5----------------0-------------
6--0-----0---------------------

1----------------------------
2---3---------2---------0----
3-------4----------2---------
4-----4----------2-----------
5----------------------------
6----------------------------

1-----------------------------------------------------
2------------------0--------------------------1/7s---0
3---------------0----------4---2----------------------
4--0---------2--------------------2--4--2-------------
5------------------------------------------2----------
6--------0--------------------------------------------

1------------------------------
2--7-----5-----3-2---2---------
3------0------------0----------
4------------------------------
5----------------0-------------
6--0-----0---------------------

 1----------------------------
 2---3---------2---------0----
 3-------4----------2---------
 4-----4----------2-----------
 5----------------------------
 6----------------------------

1-----------------------------------------------2
2------------------0----------------------------3
3---------------0----------4---2----------------2
4--0---------2--------------------2--4--2---0--
5----------------------------------------------
6--------0-------------------------------------

ISMAEL MEDRANO REYNA
SALUDOS A LA MISION HOREB NVO. LAREDO  KM 10
Suggest correction
Give kudos to tab author, rate the tab!
1 2 3 4 5
comments
print report bad tab
guest
Wanna post a correction for this tab? Suggest correction