Oops, an error
Loading. Please wait.

Altisimo Señor Tab

version 2
version 2

Whole song

776 views 3 this week
no commentswrite comment
1 2 3 4 5
3 more votes to show rating
add to favorites
launch autoscroll
font size
0
reset
how to read this tab
guitar tuner
×
Best way to learn
"Altisimo Señor"
Autoscroll
slow
fast
+/-
esc
set tempo
stop
VERSION UNPLUGGED

Esta es una preciosa cancion con un mensaje muy profundo:
trate de transcribirla lo màs fiel a la original,
en la parte de abajo aparecen los acordes usados

La intro va sobre los acordes:

//Em7 A(add9) Bm Bm7 A/B Bm7
Em(add9) Asus2 /Bsus4 B7/Dsus2(add13) G/D Dsus2(add13)

E||--2---------0-------------|---------------------|
B||--------------------3--2--|--L------------------|
G||-----2p--0----------------|-----2--------L------|
D||-----------------4--------|---------------------|
A||------------0----------2--|--L------------------|
E||--0-----------------------|---------------------|

-------------------------|------------------------|
--3--------2----------0--|--L--------0------------|
-----2----------2-----2--|--L--2----------2-------|
--------4----------2-----|--------0---------------|
--2--------2----------2--|--L---------------------|
-------------------------|------------------------|

-------------------------|-----------------------|
----------------0-----0--|--L--------------------|
-----------0----------2--|--L--2-----------------|
--------4----------------|----------2--4---------|
-----7----------------0--|--L--------------------|
--0----------------L-----|-----------------------|

-----------0------------------|-------------------------|
----------------0--2h-4h-5p-4-|--0--------4--L----------|
--------4---------------------|--------2----------------|
-----4------------------------|-------------------------|
--2---------------------------|-----2-----------L-------|
------------------------------|-------------------------|

--2---------0-------------|---------------------|
--------------------3--2--|--L------------------|
-----2p--0----------------|-----2--------L------|
-----------------4--------|---------------------|
------------0----------2--|--L------------------|
--0-----------------------|---------------------|

-------------------------|------------------------|
--3--------2----------0--|--L--------0------------|
-----2----------2-----2--|--L--2----------2-------|
--------4----------2-----|--------0---------------|
--2--------2----------2--|--L---------------------|
-------------------------|-----------------------|

-------------------------|-----------------------|
----------------0-----0--|--L--------------------|
-----------0----------2--|--L--2-----------------|
--------4----------------|----------2--4---------|
-----7----------------0--|--L--------------------|
---0----------------L-----|-----------------------|

-----------0-----0-----------0-|--L----------------||
--------0--------3---------0---|--L----------------||
-----7-----------4-------7-----|--L----------------||
-----------------5-------------|-------------------||
--5-----------L--5-----5-------|--L----------------||
-------------------------------|-------------------||

     Dsus2(add13)  G/D            Esus4/F#  Bm7
Fue algo así como lluvia en tierra seca
   G(add9)         Em9                Em9/A  A(add9)
Un rayo de luz de repente en mi oscuridad
     Dsus2(add13)       G(add9)          Esus4/F#  Bm7
Fue algo así como estar en cadena perpetua
  Em(add9)       Em(add9)/D      Cmaj7     Asus4
y una mañana escuchar te doy libertad

  Bm7              G(add9)/B            A/B     Bm7
Y siendo un vil pecador hoy como en tu mesa
G(add9)          Em9             Cmaj7    A7sus4
Sólo tu gracia le basta a mi corazón

Coro:

  D      Dmaj9 Esus4/F#             Bm7 A/B Bm7
Altísi - mo   Señor        en mi bajeza
         Em9              G6   G         A/G  F#m    Bm7
Me has mirado y me has tendí - do la escalera de tu amor
         Em9      G6 G           D  A  Bm7/F#
Tu perdón me puso a - las ¡oh mi Dios!

G(add9)  D/F# Em9            C#m7 C7 Bm7 E13
Altísi - mo Señor entre mis sombras

      G(add9)   Asus2            Bm7 A/B Bm7
Tu palabra alumbró a mi corazón.

(Igual)
Fue algo así como estar en el abismo más hondo
Y unos segundos después sobre una nube volar.
Fue algo así como ser un peregrino cansado
Que toca la puerta y le dicen: ?te tengo un lugar?

             Dsus2(add13)
       3   4    5    6    7
E-|0|----|----|----|----|----|
B-|0|----|----|----|----|----|
G-| |----|----|----|----|-
Suggest correction
Give kudos to tab author, rate the tab!
1 2 3 4 5
comments
print report bad tab
guest
You may want to rate the tab now too:
select rating
Wanna post a correction for this tab? Suggest correction