Oops, an error
Loading. Please wait.

Corazón Auxiliar Tab

by Toxemia
17 views 1 this week
no commentswrite comment
1 2 3 4 5
3 more votes to show rating
add to favorites
×
Save as Personal and add changes to this tab that will be seen only by you. Learn more ›
×
You can save this tab as Personal to edit and correct it or add notes. All changes will be seen only by you. Learn more »
save as personal
new!
launch autoscroll
font size
0
reset
how to read this tab
guitar tuner
Autoscroll
slow
fast
+/-
esc
set tempo
stop
Ola... a Todos...!!! Creo k Sta Cancion es la Mas Pedida de Toxemia x)
io tambn pedi sta cancion pero vii k nadie se valorisara en sakarla...
Weno Tarde mas de 1 Mes Sacando esta Cancion xD.. Spero k Les Guste aunk
no me convense muxo los acordes pero miren ustedes si esk la arreglan
aki les dejo lo esencial k sake

Esto Es el Intro....

E-------------------------------------------------------------------
A---------3---2---3---2------5--3--------------5----5---------------
D---------5---4---5---4------7--5--------------7----7---------------
G-------------------------------------------------------------------  (x4)
B-------------------------------------------------------------------
E-------------------------------------------------------------------

Despues sigue el Acorde Solo RebotandoCn el Acordes Si


AKi Biene EL Punteo

E---------------------------------------------
A------5-7--0--5-7----------------------------
D-------------------2h4-2-2-2-2-2-2-----------
                                                 (x2)  -->(1)
E---------------------------------------------
A-----3-5-0-----2-----------------------------
D------------2--------------------7-7-7-------

luego sigue.....

Ya no puedo Aguantar y ..........   Stos Acordes Se Tokan n todo el verso

E---------------------------------------------
A--------3------------2-----------------------
D--------5------------4-----------------------
G---------------------------------------------
B---------------------------------------------
E---------------------------------------------

Luego te kda En el Acorde Si.. k es el anterios 2y4

y sigue el arpegio en Re... PEro en distorcion suena mejor


G----------5------------------------------
B------------7-----7----------------------   (varias Veces)(3)
E---------------7-------------------------

Sigue El Coro....

D          C    B              A
   El Queee.....Sufre Como Tu... Pero Ahora Sufres Tuuuu
D          C                     B               A                D    (2)
   Siempree.....Pienza en Ganar..PEro Sta Ves... no lo lograras...

Sigue El Punteo....

(1)

Deaii Sigue la Bateria Sola...

Suficient......

E---------------------------
A---------------------------
D---------------------------
G---------------------------
E---------------------------

deaki Biene El Arpegio Pero En Otra Forma

G--------5---------5-----------5---------
B---------7---------7-----------7--------- (varias Veces)
E----------7---------7--------------------


Luego Sigue el Coro De Nuevo

(2)


Luego siGue stos doe Acordes

E----------------------------------
A---------5---3----5----3----------
D---------7---5----7----5----------

y luego biene el primer arpegio k acompaña todo el verso

(3)

y Biene el COro otra Ves

(2)

Luego Biene Otro Punteo.... no lo sake bien xk creo k 2 guitarras
hacen punteo ai pero Bueno... xlo- sake 1 punteo de los 2 xD

G-----------------------
B---3---1----3----1-3---
E-----------------------

E-------------------5----------------
A----2--3--5--3--2-----3-2-3--5---3--

B-------3-1-0------------3-1-1/5-3--1--    (2 Veces)
E-----3---------3-3----1---------------

Sigue Coro de Nuevo x)

(2)

luego biene las 2 voces

D                C                            B
  Y Ahooooooooooraa....... Te Veeeeeeeeooooooooo...(Lo Lamentaraaas)
A
Me SIento Looooooookooooo de Oooooooodiooooooooooo...(Lo Lamentaraaas)
D                   D                         B
    Lastiiiimaaassss........ Mi COrazooooooooonnnnn..(Lo Lamentaraaas)
           A
 x Eso esk Siempre Da Rencoooooooooooorrrrrr
Suggest correction
Give kudos to tab author, rate the tab!
1 2 3 4 5
comments
print report bad tab
guest
Wanna post a correction for this tab? Suggest correction