Oops, an error
Loading. Please wait.

100% Chords

10 views 1 this week
no commentswrite comment
1 2 3 4 5
3 more votes to show rating
add to favorites
×
Save as Personal and add changes to this tab that will be seen only by you. Learn more ›
×
You can save this tab as Personal to edit and correct it or add notes. All changes will be seen only by you. Learn more »
save as personal
new!
launch autoscroll
font size
0
reset
transpose
0
reset
simplify chords
display chords
guitar tuner
Autoscroll
slow
fast
+/-
esc
set tempo
stop
Strumming
There is no strumming pattern for this song yet. and get +5 IQ
intro (después de el inicio de la batera acompaña así):

e|---4-------4---5-----7-----|(x2)
B|-----5---5-------5-----7---|
G|-4-----4-----------4-------|
D|---------------------------|
A|---------------------------|
E|---------------------------|

E-A5-B5 (acompañado de este punteo)

e|---------------------------|
b|---9-------9--10-----12----|
g|-----9---9-------9------11-|
d|-9-----9-----------9-------|
a|---------------------------|
E|---------------------------|

E                    A5
En esos días todo era locura,
E                 A5
sólo jugábamos bajo la luna,
E                       A5
No me importaba lo que aconteciera,
G#5                A5      B5
éramos niños y no había problemas.

E                       A5
En todo el tiempo que pasamos juntos,
E                   A5
si me mirabas se paraba el mundo,
E                   A5
Si al otro día no querías verme,
G#5                     A5      B5
no me importaba por que ya era Viernes.

B - B - E5

E5              A5    B5    B5 - B5 - E5
cien por ciento convencido,
E5                 A5   B5    B5 - B5 - E5
que a mi lado no pasaba nada,
E5              A5    B5    B5 - B5
cien por ciento distraído,
         C#5                   A5    B5 B5
y hoy ya me di cuenta que el pasado era mejor.


E                        A5
Hoy que crecimos todo es muy distinto,
E                          A5
pasó aquel tiempo y ni cuenta nos dimos,
E                   A5
A mis amigos no los veo tanto,
G#5                 A5   B5
malgastamos la vida trabajando.

E                    A5
Un poco solo y lejos de mi barrio,
E                      A5
recuerdo todo lo que allí he dejado,
E                      A5
Cuantos amores cuantas decepciones,
G#5                       A5  B5
cuantos problemas cuantas ilusiones.

B - B - E5

E5              A5    B5    B5 - B5 - E5
cien por ciento convencido,
E5                 A5   B5    B5 - B5 - E5
que a mi lado no pasaba nada,
E5              A5    B5    B5 - B5
cien por ciento distraído,
         C#5                   A5    B5  E
y hoy ya me di cuenta que el pasado era mejor.

e|-----7-----------7--------|
B|-4-5---5-4---4-5---5-4----|
G|------------------------4-|
D|--------------------------|
A|--------------------------|
E|--------------------------|

e|---------------|
B|-14------------|
G|----13-11-9-13-|
D|---------------|
A|---------------|
E|---------------|

e|-12-12-12--11-12-14----|
B|-------------------12--|
G|-----------------------|
D|-----------------------|
A|-----------------------|
E|-----------------------|

e|-------11--------------------|
B|-12-14----14-12--------------|
G|----------------11h13p9-9-6~-|
D|-----------------------------|
A|-----------------------------|
E|-----------------------------|

Y ahora que sólo quiero estar con vos,

siempre recuerdo esta tonta discusión...
Esta tonta discusión.....

E5              A5    B5    B5 - B5 - E5
cien por ciento convencido,
E5                 A5   B5    B5 - B5 - E5
que a mi lado no pasaba nada,
E5              A5    B5    B5 - B5
cien por ciento distraído,
         C#5                   A5    B5  E5
y hoy ya me di cuenta que el pasado era mejor.

E5              A5    B5    B5 - B5 - E5
cien por ciento convencido,
E5                 A5   B5    B5 - B5 - E5
que a mi lado no pasaba nada,
E5              A5    B5    B5 - B5
cien por ciento distraído,

         C#5               e|-16-14----------14--|
y hoy ya me di cuenta que: B|-------17-16-17-----|

    F#5             B5   C#5
....cien por ciento oohhhohhhh.....
....cien por ciento oohhhohhhh.....

    D#5             B5   C#5
....cien por ciento oohhhohhhh.....

    F#5             B5   C#5
....cien por ciento oohhhohhhh.....
....cien por ciento oohhhohhhh.....

    D#5             B5         C#5         F# ~~~~~
....cien por ciento oohhhhhhh  oohhh oohhh ohhh.....

listo; fácil.
escuchen la canción para que se guíen.
si kieren pidan mas canciones de este y otros
grupos locales a blinkfredy@
.:suerte:. disfrutenla
blinkfredy
Suggest correction
Give kudos to tab author, rate the tab!
1 2 3 4 5
comments
print report bad tab
guest
Wanna post a correction for this tab? Suggest correction