Oops, an error
Loading. Please wait.

Carnaval Tab

7 views 1 this week
no commentswrite comment
1 2 3 4 5
3 more votes to show rating
add to favorites
launch autoscroll
font size
0
reset
how to read this tab
guitar tuner
Autoscroll
slow
fast
+/-
esc
set tempo
stop
Help us to improve Ultimate-Guitar.com Take our survey!
×
Intro:
e|----------|------------------------|
B|-------X6-|------------------------|
G|-9--------|-44444444-222111--------|
D|----7--9--|-----------------44-7~--|
A|----------|------------------------|
E|----------|------------------------|

Cada minuto en la cancha se juega una vida
Rueda la bola y sientes que sangra una herida

(Pick slide)

Em5                                  B5
Domingo por la tarde y hay otra ilusión que apostar
A5                                          B5
Por que si hoy juega mi equipo todo es carnaval.

Carnaval       Intro:
e|------------|----------|------------------------|
B|------------|-------X6-|------------------------|
G|------------|-9--------|-44444444-222111--------|
D|-777-666-44-|----7--9--|-----------------44-7~--|
A|-777-666-44-|----------|------------------------|
E|-555-444-22-|----------|------------------------|


Llega la hora del juego y no se puede respirar
El barrio entero entra en trance y se quiere jugar

Pick slide

Em5                                  B5
Domingo por la tarde y hay otra ilusión que apostar
A5                                           B5
Por que si hoy juega mi equipo todo es carnaval.


Em5~                                     D#5~
Y paso lunes, martes, miércoles, jueves, viernes, sábado y domingo
A5                                D#5     A5-G#5-F#5
Todos los días pensando que empiece el partido
Em5~                              D#5~
Lunes, martes, miércoles, jueves, viernes, sábado y domingo
A5                                D#5
Con una cerveza brindando porque es carnaval...

Carnaval       Intro:
e|------------|----------|------------------------|
B|------------|-------X6-|------------------------|
G|------------|-9--------|-44444444-222111--------|
D|-777-666-44-|----7--9--|-----------------44-7~--|
A|-777-666-44-|----------|------------------------|
E|-555-444-22-|----------|------------------------|


Em5                                              B5
Peligro en el área se acerca y me tiemblan las piernas
A5                                       B5 A5-G#5-F#5
Infarto al miocardio seguro si ese balón entra

Em5~                                     D#5~
Y paso lunes, martes, miércoles, jueves, viernes, sábado y domingo
A5                                D#5     A5-G#5-F#5
Todos los días pensando que empiece el partido
Em5~                              D#5~
Lunes, martes, miércoles, jueves, viernes, sábado y domingo
A5                                D#5
Con una cerveza brindando porque es carnaval...

Carnaval       Intro:
e|------------|----------|------------------------|
B|------------|-------X6-|------------------------|
G|------------|-9--------|-44444444-222111----9---|
D|-777-666-44-|----7--9--|-----------------44-9---|
A|-777-666-44-|----------|--------------------7---|
E|-555-444-22-|----------|------------------------|


ACORDES:
e|----X----X----X----X----X----X----|
B|----X----X----X----X----X----X----|
G|----X----4----X----X----6----X----|
D|----2----4----7----4----6----6----|
A|----0----2----7----4----4----6----|
E|----0----X----5----2----X----4----|
          Em5   B5   A5  F#5  D#5  G#5


ESTA ES LA VERCION CORREGIDA 100% CORRECTA
DUDAD O COSAS COMO ESA SOLO ESCRIBANME AL CORREO Y YA
Suggest correction
Give kudos to tab author, rate the tab!
1 2 3 4 5
comments
print report bad tab
guest
You may want to rate the tab now too:
select rating
Wanna post a correction for this tab? Suggest correction