Oops, an error
Loading. Please wait.

Dame Tu Amor Chords

30 views 1 this week
no commentswrite comment
1 2 3 4 5
3 more votes to show rating
add to favorites
launch autoscroll
font size
0
reset
transpose
0
reset
display chords
guitar tuner
Autoscroll
slow
fast
+/-
esc
set tempo
stop
Strumming
There is no strumming pattern for this song yet. and get +5 IQ
es una buena cancion y hay que publicarla.
comentarios al mail.

D      G      A      x2
          oh uh oh oh

B      E      A      D
          oh uh oh oh


A      D      G    A       D
Yo la Amé Pero tuve que matarla
      G         A
con la bandera del desamor
      G      A         D
y aqui estoy esperando el momento
    B           E         A            D          F# F E
de tenerte de regreso y explicar lo que pasó


     D       G    A    D
Al partir me dejaste una nota
        G          A
tambien un beso y una flor
      G      A         D
y aqui estoy esperando el momento
   B           E         A            D          A
de tenerte de regreso y explicar lo que pasó


CORO x2

          D          G   A
solo dame tu amor      dame tu amor
       D                G   A
Dame tu amor          dame tu amor
          B        E    A   D          A
solo dame tu amor y no esperes retribución


   D         G        A    D          x2
e------------------------------------------------------
B------------------------------------------------------
G--7---\11-11-7--12-12--11--9--6-7---------------------
D--x---\x--x--x--x--x---x---x--x-x---------------------
A--5---\9--9--5--10-10--9---7--4-5---------------------
E-----------------------------------------------------
en la tercera vez se hacce:
   B            E       A          D                A
e------------------------------------------------------
B------------------------------------------------------
G--7---\11-11-7--12-12-12-14-14-16-16-19-19------------
D--x---\x--x--x--x--x--x--x--x--x--x--x--x-------------
A--5---\9--9--5--10-10-10-12-12-14-14-17-17------------
E------------------------------------------------------

     D       G    A    D
Al partir me dejaste una nota
        G          A
tambien un beso y una flor
      G      A         D
y aqui estoy esperando el momento
   B           E         A            D          A
de tenerte de regreso y explicar lo que pasó


CHORUS x2

final
                                  |
D      G      A      x2                    | x2
B      E      A      D      A                |


 saludos a katya y anque no le puedo dedicar toda la
 cancion el coro si te va.
Suggest correction
Give kudos to tab author, rate the tab!
1 2 3 4 5
comments
print report bad tab
guest
Wanna post a correction for this tab? Suggest correction