Oops, an error
Loading. Please wait.

De Que Nos Sirve Bass Tab

3 views 1 this week
no commentswrite comment
1 2 3 4 5
3 more votes to show rating
add to favorites
launch autoscroll
font size
0
reset
guitar tuner
×
Best way to learn
"De Que Nos Sirve"
Autoscroll
slow
fast
+/-
esc
set tempo
stop
INTRO:
G|----------------------------------|   |----------|
D|----------------------------------|   |----------|
A|-2-2-0-----------3-3-3-3-2-2-2-2-2|   |2-2-2-2-2-|
E|-------3-0-0-0-0------------------|x3 |----------|

ESTROFA 1: ?Dejo su pasado...?
G|-------------------------------------------------------|
D|-------------------------------------------------------|
A|-------------------2-2-2-2-2-2-2-2-2-------------------|
E|-0-0-0-0-0-0-0-0-0-------------------0-0-0-0-0-0-0-0-0-|

?Parecia tan tranquilo...?
G|-----------------------------------------|
D|-----------------------------------------|
A|-2-2-2-2-2-2-2-2-2-2---------------------|
E|---------------------0-0-0-0-0-0-0-0-0-0-|

ESTROFA 2:?se cansó de pasar las mañanas...?
G|-----------------------------------------|
D|-----------------------------------------|
A|-0-0-0-0-0-0-0-0-0-0---------------------|
E|---------------------0-0-0-0-0-0-0-0-0-0-|

?Tendido en su cama sin desayunar...?
G|--------------------------------------------|
D|--------------------------------------------|
A|-3-3-3-3?3-3-3-3-3-3-?-2?-2-?2-?2?-2-?2--2--|
E|--------------------------------------------|

ESTROFA 1:?Dejó su familia sentada...?

ESTROFA 2:?Se cansaron de oír tantas misas...?

CORO:? Y de que nos sirve aguantar...?
G|-------------------------------------------------------|
D|-------------------------------------------------------|
A|---------------------3-3-3-3-3-3-3-3-3-3?5-?5-?5--5----|
E|-3-3-3-3-3-3-3-3-3-3---------------------------------3-|x3

Y de que nos sirve aguantar si no se puede respirar
G|----------------------------------------------------------|
D|----------------------------------------------------------|
A|---------------------3-3-3-3-3-2-2-2-2-2?0-0-0-0-0--------|
E|-3-3-3-3-3-3-3-3-3-3---------------------------------3?2--|

INTRO

ESTROFA 1:? Pasó tantas tardes...?

ESTROFA 2:? Para él solo quedan lamentos...?

CORO

PRE-SOLO:? Dejaste la vida tirada...?
G|-----------------------------------------|
D|-----------------------------------------|
A|-----------3-3-3-3-3-5-5-5-5-5-----------|
E|-3-3-3-3-3---------------------0-0-0-0-0-|

SOLO:
G|-----------------------------------------|
D|-----------------------------------------|
A|-----------3-3-3-3-3-5-5-5-5-5-----------|
E|-3-3-3-3-3---------------------3-3-3-3-3-|

G|-----------------------------------------|
D|-----------------------------------------|
A|-----------3-3-3-3-3-5-5-5-5-5-----------|
E|-3-3-3-3-3---------------------0-0-0-0-0-|

G|-----------------------------------------|
D|-----------------------------------------|
A|-----------3-3-3-3-3-5-5-5-5-5-----------|
E|-3-3-3-3-3---------------------0-0-0-0-0-|

G|-----------------------------------------|
D|-----------------------------------------|
A|-----------3-3-3-3-3-5-5-5-5-5-----------|
E|-3-3-3-3-3---------------------3-3-3-3-3-|


CORO: tiene las mismas notas pero la forma de tocarlo es
      Diferente

Ps no siendo mas le mando saludes a mis dos bandas "Rana Rene"
Y "Mil de pan" y si alguien tiene alguna corrección o cosas
Así escríbanme al correo rockandres182@
Suggest correction
Give kudos to tab author, rate the tab!
1 2 3 4 5
comments
print report bad tab
guest
You may want to rate the tab now too:
select rating
Wanna post a correction for this tab? Suggest correction