Oops, an error
Loading. Please wait.

El Pobre Chords

16 views 1 this week
no commentswrite comment
1 2 3 4 5
3 more votes to show rating
add to favorites
launch autoscroll
font size
0
reset
transpose
0
reset
simplify chords
display chords
guitar tuner
×
Best way to learn
"El Pobre"
Autoscroll
slow
fast
+/-
esc
set tempo
stop
G5            A5
Ella maldijo mi nombre
            E5                A5
Por ser un amante, un amante pobre
G5             A5                 E5                    A5
Ella maldijo mi nombre por ser un perro mas duro que un roble

CORO
G5
Ay pero yo no quiero trago
A5
Yo no quiero mas droga
E5
Yo te quiero mujer
A5
Vos sos lo que me ahoga
G5                 A5
Yo no quiero rueda yo no quiero mas alcohol
E5           A5             G5
Salvame vos sos mi ultima opcion

E|----------------------------|
B|----------------------------|
G|--------------9-9-999-------|
D|-5-5-555-7-77-9-9-999-7-77--|
A|-5-5-555-7-77-7-7-777-7-77--|
E|-3-3-333-5-55---------5-55--|

G5                       A5
Y se que siempre consigo dinero
               E5             A5
para drogas alcohol y pal puteadero
         G5                A5
y se que siempre me lleva la fiesta
E5                 A5
semanas enteras y no me suelta


       G5*        A5*
Tanta mona me envenena
       E5*         A5*
Tanta mona es mi condena
       G5*        A5*
Tanta mona me envenena
       C5*         D5*
Tanta mona es mi condena
       G5       A5       C5          D5
Pobre yo, me quedo aca bailando sin poder parar
       G5      A5           C5            D5
Pobre yo no puedo llorar y eso me duele mucho mas

E|------11-9-8----------11-9-8-------11-9-8---9-99-11-9-8-|
B|-9-99---------11-1111---------9-99----------------------|
G|--------------------------------------------------------| X2
D|--------------------------------------------------------|
A|--------------------------------------------------------|
E|--------------------------------------------------------|

       G5*        A5*
Tanta mona me envenena
       E5*         A5*
Tanta mona es mi condena
       G5*        A5*
Tanta mona me envenena
       C5*         D5*
Tanta mona es mi condena
       G5       A5       C5          D5
Pobre yo, me quedo aca bailando sin poder parar
       G5      A5           C5            D5
Pobre yo no puedo llorar y eso me duele mucho mas

       G5*        A5*
Tanta mona me envenena
       E5*         A5*
Tanta mona es mi condena
       G5*        A5*
Tanta mona me envenena
       C5*         D5*
Tanta mona es mi condena
       G5         A5
Tanta mona me envenena
       E5          A5
Tanta mona es mi condena
       G5         A5
Tanta mona me envenena
       C5          D5
Tanta mona es mi condena
       G5
Pobre yo

ACORDES
E|----X----X----X----X----X----| * = PALM MUTE
B|----X----X----X----X----X----|
G|----X----X----9----5----7----|
D|----5----7----9----5----7----|
A|----5----7----7----3----5----|
E|----3----5----X----X----X----|
      G5   A5   E5   C5   D5
Suggest correction
Give kudos to tab author, rate the tab!
1 2 3 4 5
comments
print report bad tab
guest
You may want to rate the tab now too:
select rating
Wanna post a correction for this tab? Suggest correction