Oops, an error
Loading. Please wait.

Ella Chords

5 views 1 this week
no commentswrite comment
1 2 3 4 5
3 more votes to show rating
add to favorites
launch autoscroll
font size
0
reset
transpose
0
reset
display chords
guitar tuner
×
Best way to learn
"Ella"
Autoscroll
slow
fast
+/-
esc
set tempo
stop
otra exelente cancion......
de esta si estoy seguro que siquiera el 90% este buena.
se la dedico a nora (aunque muy posiblemente ella o vea esto) .....
ahhh pero si la deseo ver, de hecho si no la veo me arranco una.


Ella::

--intro--

E-----------------|----------------|
B-----------------|----------------|
G---9-9-9--9-9-9--|--6-6-6--4-4-4--|
D---9-9-9--9-9-9--|--6-6-6--4-4-4--|
A---7-7-7--7-7-7--|--4-4-4--2-2-2--|
E-----------------|----------------|

E-----------------|----------------|
B-----------------|----------------|
G---9-9-9--9-9-9--|--6-6--4-4-4-6--|
D---9-9-9--9-9-9--|--6-6--4-4-4-6--|
A---7-7-7--7-7-7--|--4-4--2-2-2-4--|
E-----------------|----------------|

sigue con los mismos tonos pero rapido


E        C#
Ella es como un sueño
E            C#
Es una diosa coronada
E           C#
Una manzana masticada
E                C#     -Bm**
Sin nada que perder

---los mismos tonos----

Ella me dio la vida y el corazón
Yo me confié de todo lo que ella me dio
Yo le entregué mis días llenos de ilusión
Ella se fue con otro y me traicionó

-----------------------

A           B                  G             F     B*
Ella me dio Una lección de la vida que no me merezco
A                       B                               -intro RAPIDO-
Lo siento en el alma Te dejo y no te vuelvo a ver

--------------------

E          C#
Ella congeló una noche
E               C#
Adentro todo se quedó quieto
E                  C#
Subió a su trono y muy en silencio
E               C#   B**
Invocó la maldición

---los mismos tonos----

Ella me dio la vida y el corazón
Yo me confié de todo lo que ella me dio
Yo le entregué mis días llenos de ilusión
Ella se fue con otro y me traicionó

-----------------------------

A           B                  G             F     B*
Ella me dio Una lección de la vida que no me merezco
A                       B
Lo siento en el alma Te dejo y no te vuelvo a ver

--------------------------------

--punteo--

E--------------------------|
B--------------------------|
G--10x12--7x6--5x6---------|
D--------------------------| x4
A--------------------------|
E--------------------------|

----------------------------------

A           B                  G             F     B*
Ella me dio Una lección de la vida que no me merezco
A                       B
Lo siento en el alma Te dejo y no te vuelvo a.........


A           B                  G             F     B
Ella me dio Una lección de la vida que no me merezco
A                       B                         -intro-
Lo siento en el alma Te dejo y no te vuelvo a ver

----------------------------------

-SIMBOLOS-   ????

* = golpe.

------------------------------------

EL JIN.....

(SNIFF, ESTA CANCION ME TRAE :-  .....  MALOS RECUERDOS)

-------------------------------------


SI TIENES DUDAS, CORRECCIONES O ALGO, AHISTA MI MAIL
Suggest correction
Give kudos to tab author, rate the tab!
1 2 3 4 5
comments
print report bad tab
guest
You may want to rate the tab now too:
select rating
Wanna post a correction for this tab? Suggest correction