Oops, an error
Loading. Please wait.

Feliz Día Mamá Tab

10 views 1 this week
no commentswrite comment
1 2 3 4 5
3 more votes to show rating
add to favorites
launch autoscroll
font size
0
reset
how to read this tab
guitar tuner
×
Best way to learn
"Feliz Día Mamá"
Autoscroll
slow
fast
+/-
esc
set tempo
stop
*= varias veces
 ~= dejar sonando
 w= punteo tremolo en fusa (se toca rapidísimo moviendo
                            la pajuela de arriba hacia abajo)

ACORDES:

   A5 E5 D5 F#5 E  B  G#5 C#5
e|-X--X--X---X--X--X---X---X--|
B|-X--X--X---X--X--X---X---X--|
G|-X--9--7---X--1--4---X---6--|
D|-7--9--7---4--2--4---6---6--|
A|-7--7--5---4--2--2---6---4--|
E|-5--X--X---2--0--X---4---X--|

INTRO: A5 - E5 - D5

CORO: A5 - E5 - D5 - E5 - A5

VERSO 1: D5 - E5 - A5

CORO

PUNTEO:

e|---------------------------|
B|-3----3--5---5-3-2-2-3-2---|(X2)
G|---2-2----4-4--------------|
D|---------------------------|
A|---------------------------|
E|---------------------------|

e|---------------------------|
B|-2-2-2-2-------------------|
G|---------4-4--4-4-4-4--2-2-|
D|---------------------------|
A|---------------------------|
E|---------------------------|

e|---------------------------|
B|-3--2-2--2-----------------|
G|-------4-------------------|
D|---------------------------|
A|---------------------------|
E|---------------------------|

e|------------------------------5-5-5-7-5-4-5~|
B|-2-2-2-2-------------------3h5-5------------|
G|---------4-4--4-4-4-4--2-2------------------|
D|--------------------------------------------|
A|--------------------------------------------|
E|--------------------------------------------|


verso 2 (va acompañado de este punteo):
e|--5-4-(varias veces)-------|

y luego cambia

e|--5-4-0-5-4-0-5-4---5-4-0-5-4-0-5-4--(varias veces rápido)-|

SOLO 2:
e|-5~---5*---2~--0~---5*---2~-2h4~---5*---7w--9w---5->
Ac.D~ - A* - F#~ E~ - A* - F#~ G#~ - A* - C#w Ew - A >

CORO

verso 3: Y no importa si hoy no es tu día,

(va acompañado despues de la palabra DIA con:)

e|----------------|
B|----------------|
G|----------------|
D|--4-2-2---------|
A|--------4-2~----|
E|----------------|

no hay fecha para DEDICARTE ESTA CANCIÓN
(la que esta en mayúscula va acompañado por:)

e|--------12---------------10-------|
B|--10-12----14---10-12-10----7h9p7~|
G|----------------------------------|
D|----------------------------------|
A|----------------------------------|
E|----------------------------------|

porque cada minuto de mi VIDA(acompañado asi:)

e|---------------------------|
B|----------------------2h5~-|
G|------------------1~-------|
D|--4-2-2-------2~-----------|
A|--------4-2~---------------|
E|---------------------------|

luego termina con el punteo:

e|---------------------------|
B|-3----3--5---5-3-2-2-3-2---|(X2)
G|---2-2----4-4--------------|
D|---------------------------|
A|---------------------------|
E|---------------------------|

e|---------------5p4h5-5p4h5---7-7-7-7-4h5-5-------5p4h5-5p4h5~|
B|-3----3--5--------------------------------7-4h5-----------5~-|
G|---2-2----4-4------------------------------------------------|
D|-------------------------------------------------------------|
A|-------------------------------------------------------------|
E|-------------------------------------------------------------|

ESTO ES TODO. (escúchen la canción y verán)
suena exelente,
sobretodo con una guitarra haciendo los acordes.
(caro, vos que me la pediste, ojalá te sirva).
sigan mandando tabs de rock local. suerte.
Suggest correction
Give kudos to tab author, rate the tab!
1 2 3 4 5
comments
print report bad tab
guest
You may want to rate the tab now too:
select rating
Wanna post a correction for this tab? Suggest correction