Oops, an error
Loading. Please wait.

Intentando Olvidar Bass Tab

2 views 1 this week
no commentswrite comment
1 2 3 4 5
3 more votes to show rating
add to favorites
launch autoscroll
font size
0
reset
guitar tuner
Autoscroll
slow
fast
+/-
esc
set tempo
stop
Help us to improve Ultimate-Guitar.com Take our survey!
×
Esta es mi primera colaboracion asi q  no esperen q este muy
bien pero igual suena bacano.........y ojala mas gente se
animara a enviar canciones de este y otros grupos colombianos

Riff 1
|-0?2p4h?--|
|----------|
|----------|
|----------|

Después comienza la batería

?Creíste encontrarla...?
|----------------------------------------|
|----------------------------------------|
|----------------------------------------|
|-3-3-3-3-3-3-3-3-3-3-0-0-0-0-0-0-0-0-0?-|

|-----------------------------------------|
|-----------------------------------------|
|-5-5-5-5-5-5-5-5-5-5---------------------| X2
|---------------------3-3-3-3-3-3-3-3-3-3-|

?Pero nada en tu vida cambio...?
|-----------------------------------------|
|-----------------------------------------|
|-3-3-3-3-3-5-5-5-5-5---------------------|    X2
|---------------------3-3-3-3-3-3-3-3-3-3-|

Pick slide

?Ella iba a la cancha...?
|----------------------------------------|
|----------------------------------------|
|----------------------------------------|
|-3-3-3-3-3-3-3-3-3-3-0-0-0-0-0-0-0-0-0?-|

|-----------------------------------------|
|-----------------------------------------|
|-5-5-5-5-5-5-5-5-5-5---------------------| X2
|---------------------3-3-3-3-3-3-3-3-3-3-|

?Pero nada en tu vida cambio...?
|-----------------------------------------|
|-----------------------------------------|
|-3-3-3-3-3-5-5-5-5-5---------------------|    X2
|---------------------3-3-3-3-3-3-3-3-3-3-|

CORO: ?Y pasaran 100 años tal vez...?
|-------------------------------------------|
|-------------------------------------------|
|-3-3-3-3-3-3-3-3-3-3-----------------------|   X2
|---------------------3-3-3-3-3-3-3-3-3-3-3-|

?Y pasaran otros tr3s mil años?
|-------------------------------------------|
|-------------------------------------------|
|-5-5-5-5-5-5-5-5-5-5-7-7-7-7-7-7-7-7-7-7-7-|
|-------------------------------------------|

|-------------------------------------------|
|-------------------------------------------|
|-5-5-5-5-5-5-5-5-5-5-3-----3---------------|
|-------------------------------------------|

Riff 1
?Creí encontrarte...?
|----------------------------------------|
|----------------------------------------|
|----------------------------------------|
|-3-3-3-3-3-3-3-3-3-3-0-0-0-0-0-0-0-0-0?-|

|-----------------------------------------|
|-----------------------------------------|
|-5-5-5-5-5-5-5-5-5-5---------------------| X2
|---------------------3-3-3-3-3-3-3-3-3-3-|

?Pero nada en mi vida cambio...?
|-----------------------------------------|
|-----------------------------------------|
|-3-3-3-3-3-5-5-5-5-5---------------------|    X2
|---------------------3-3-3-3-3-3-3-3-3-3-|

?Parecías sincera...?
|----------------------------------------|
|----------------------------------------|
|----------------------------------------|
|-3-3-3-3-3-3-3-3-3-3-0-0-0-0-0-0-0-0-0?-|

|-----------------------------------------|
|-----------------------------------------|
|-5-5-5-5-5-5-5-5-5-5---------------------| X2
|---------------------3-3-3-3-3-3-3-3-3-3-|

?Pero nada en mi vida cambio...?
|-----------------------------------------|
|-----------------------------------------|
|-3-3-3-3-3-5-5-5-5-5---------------------|    X2
|---------------------3-3-3-3-3-3-3-3-3-3-|


CORO


EN EL SOLO DE LA GUITARRA : (dos veces todo)
|-----------------------------------------|
|-----------------------------------------|
|-3-3-3-3-3-3-3-3-3-3---------------------|
|---------------------3-3-3-3-3-3-3-3-3-3-|

|-----------------------------------------|
|-----------------------------------------|
|-5-5-5-5-5-5-5-5-5-5---------------------|
|---------------------5-5-5-5-5-5-5-5-5-5-|

CORO FINAL (ojo q tiene algunas variaciones)
?Y pasaran 100 años tal vez...?
|-------------------------------------------|
|-------------------------------------------|
|-3-3-3-3-3-3-3-3-3-3-----------------------|   X2
|---------------------3-3-3-3-3-3-3-3-3-3-3-|

?Y pasaran otros tr3s mil años?
|-------------------------------------------|
|-------------------------------------------|
|-5-5-5-5-5-5-5-5-5-5-7-7-7-7-7-7-7-7-7-7-7-|
|-------------------------------------------|

|-------------------------------------------|
|-------------------------------------------|
|-5-5-5-5-5-5-5-5-5-5-3---------------------|
|-------------------------------------------|

?Y pasaran 100 años tal vez...?
|-------------------------------------------|
|-------------------------------------------|
|-3-3-3-3-3-3-3-3-3-3-----------------------|   X2
|---------------------3-3-3-3-3-3-3-3-3-3-3-|

?Y pasaran otros tr3s mil años?
|-------------------------------------------|
|-------------------------------------------|
|-5-5-5-5-5-5-5-5-5-5-7-7-7-7-7-7-7-7-7-7-7-|
|-------------------------------------------|

|-------------------------------------------|
|-------------------------------------------|
|-5-5-5-5-5-5-5-5-5-5-3-3-3?3-3-3-3-3-3-3-3-|
|-------------------------------------------|

NOTA FINAL:
|-------------------------------------------|
|-------------------------------------------|
|--5----------------------------------------|
|-------------------------------------------|

saludos a mis amigos de la banda y el colegio, y tambien
a mis demas parceros

si alguien tiene el solo en guitarra de la cancion "solo
quiero estar junto a ti" o cualquier otra transcripcion
en bajo o guitarra de tr3s de corazon por favor pasenmela
por correo

dudas, correscciones o cosas asi escribanme al correo
rockandres182@
Suggest correction
Give kudos to tab author, rate the tab!
1 2 3 4 5
comments
print report bad tab
guest
You may want to rate the tab now too:
select rating
Wanna post a correction for this tab? Suggest correction