Oops, an error
Loading. Please wait.

Lázaro Tab

32 views 1 this week
no commentswrite comment
1 2 3 4 5
3 more votes to show rating
add to favorites
launch autoscroll
font size
0
reset
how to read this tab
guitar tuner
×
Best way to learn
"Lázaro"
Autoscroll
slow
fast
+/-
esc
set tempo
stop
B5           A5           B5
No me averguenzo de ese amor prometedor
         A5                        D5
voy caminando con la cruz de mi dolor
         E5            F#5         B5
y todos saben que eso es pura pasión
           D5            G5          F#m5         B5
que ni se rompe el corazón que ni se tapa con el sol


             A5            B5
Toda mi vida mendigando un amor
          A5                         D5
cuando lo encuentro esta tan loco como yo
         E5            F#5         B5
y todos saben que eso es pura pasión
           D5            G5          F#m5         B5
que ni se rompe el corazón que ni se tapa con el sol


CORO:
G5                               D5
Y comiendo mierda entenderé que para mi la vida
       A5              B5
no es igual no es igual
G5                                D5
todos saben mi apellido y mi aperiencia para nadie
       A5
es normal
D5        C#5       G5                 D5                A5
Basta de tantas mentiras de una vez decime si quieres jugar
       D5          A5         G5                 D5
en la mesa estan puestas las fichas que tire primero
                  A5
quien quiere apostar


B5           A5           B5
No me averguenzo de ese amor prometedor
         A5                        D5
voy caminando con la cruz de mi dolor
         E5            F#5         B5
y todos saben que eso es pura pasión
           D5            G5          F#m5         B5
que ni se rompe el corazón que ni se tapa con el sol


SOLO:
E|-----------------------------------------------|
B|-----------------------------------------------|
G|-----------------------------------------------|
D|-0-2-4-444-2-2-4-2-0----4-5-7-777-55-7s-9-7-4v-|
A|-----------------------------------------------|
E|-----------------------------------------------|
   B5    A5    B5         A5         D5

E|--------------------------------------------|
B|--------------------------------------------|
G|--------------------------------------------|
D|--------------------------------------------|
A|-4-5-777-777-9-7-555-555-7-5-444-444-5-4-2v-|
E|--------------------------------------------|
   E5    F#m    B5     D5    G5    F#m    B5


G5                               D5
Y comiendo mierda entenderé que para mi la vida
       A5              B5
no es igual no es igual
G5                                D5
todos saben mi apellido y mi aperiencia para nadie
       A5
es normal


D5        C#5       G5                 D5                A5
Basta de tantas mentiras de una vez decime si quieres jugar
       D5          A5         G5                 D5
en la mesa estan puestas las fichas que tire primero
                  A5
quien quiere apostar

E|-------------------------------x2----|--------------------|
B|-------------------------------------|--------------------|
G|-------------------7-7-777-9-99-9-9--|--------------------|
D|-9-9-999-9-99-9-9--7-7-777-9-99-9-9--|-9-9-9-9-9-99999999-|
A|-9-9-999-9-99-9-9--5-5-555-7-77-7-7--|-9-9-9-9-9-99999999-|
E|-7-7-777-7-77-7-7--------------------|-7-7-7-7-7-77777777-|
                                         |-----pm-----|

             A5            B5
Toda mi vida mendigando un amor
          A5                         D5
cuando lo encuentro esta tan loco como yo
         E5            F#5         B5
y todos saben que eso es pura pasión
           D5            G5          F#m5         B5
que ni se rompe el corazón que ni se tapa con el sol


ACORDES:
E|-----X-----X-----X-----X-----X-----X-----X-----|
B|-----X-----X-----X-----X-----X-----X-----X-----|
G|-----X-----X-----7-----9-----11----X-----X-----|
D|-----9-----7-----7-----9-----11----5-----4-----|
A|-----9-----7-----5-----7-----9-----5-----4-----|
E|-----7-----5-----X-----X-----X-----3-----2-----|
       B5    A5    D5    E5   F#5    G5   F#m5
Suggest correction
Give kudos to tab author, rate the tab!
1 2 3 4 5
comments
print report bad tab
guest
You may want to rate the tab now too:
select rating
Wanna post a correction for this tab? Suggest correction