Oops, an error
Loading. Please wait.

Lejos Tab

11 views 1 this week
no commentswrite comment
1 2 3 4 5
3 more votes to show rating
add to favorites
launch autoscroll
font size
0
reset
how to read this tab
guitar tuner
Autoscroll
slow
fast
+/-
esc
set tempo
stop
Help us to improve Ultimate-Guitar.com Take our survey!
×
bueno esta cancion me la habian pedido
pero igual la pensaba mandar,
asi ke aki esta.
todo va en 5tas

INTRO bajo: C

C
Lejos de la carretera
                   A              G
Ausente aunque me vean, desaparezco

C
Aunque me encuentre muy cerca
                 A             G
Me voy a otro planeta desaparezco


D                 G
 Aunque vuele lejos
          D          F/F6
Vos me hacés aterrizar

e:|----------------------------------------|
B:|----------------------------------------|
G:|-------------------------------------5--|
D:|-5-5-5-5--2-2-3-3-5-5-5-5-2-2-3-3-5--3--|
A:|----------------------------------------|
E:|----------------------------------------|

C
Vivo en cámara lenta
                  A
El mundo da mil vueltas
             G         F-F
No me detengo


C
Pones mis pies en la tierra
               A
Curaste muchas penas
                     G
Me estoy sintiendo nuevo


C-C/D              G
     Aunque vuele lejos
               D         F  / F6
     Vos me hacés aterrizar


CORO:
        C           A
Sé que nunca me doy cuenta
           G#
Si hago el bien o si hago el mal
           A#
Si es de azúcar o de sal
        C           A
Sé que nunca me doy cuenta
       G#              F
Si confío en tu mirar
       G#             C-C-C-C-B-C-C-C-B
No me vuelvo a preocupar


solo de guitarra: (A - C) X2

                                    ~
|----------------------------------------|
|-8h10--------8h10--------6h8-8-6p5-5----|
|------9---9-------9---9-----------------| X 2
|--------7-----------7-------------------|
|----------------------------------------|
|----------------------------------------|


  D -           G -      D -          F
                                       ~~

|----8h10-10h12-10-8-7-8h10-10--10h12-10----|
|5h6----------------------------------------|
|-------------------------------------------|
|-------------------------------------------|
|-------------------------------------------|
|-------------------------------------------|

          G#m                                     C
                                                  ~~~~~

|-8--7--------------------------------------------8----|
|--------------9------9------9------9-9h11p9----9------|
|---------8h10---8h10---8h10---8h10----------10--------|
|------------------------------------------------------|
|------------------------------------------------------|
|------------------------------------------------------|


C
Lejos de la carretera
                   A              G~
Ausente aunque me vean, desaparezco


D                 G
 Aunque vuele lejos
          D          F5/F6
Vos me hacés aterrizar


CORO:
        C           A
Sé que nunca me doy cuenta
           G#
Si hago el bien o si hago el mal
           A#
Si es de azúcar o de sal
        C           A
Sé que nunca me doy cuenta
       G#              F
Si confío en tu mirar
       G#
No me vuelvo a preocupar


        C           A
Sé que nunca me doy cuenta
           G#
Si hago el bien o si hago el mal
           A#         D#
Si es de azúcar o de sal
       G
Si confío en tu mirar
G#       A#
  No me vuelvo
         C - (C-G#-G#-A#-A#-C) X2
a preocupar

         C-G#-G#-A#-A#-C-C-C-C


listo eso es todo, esta facil y el solo esta muy bakano.
disfrútenla y califíkenla.
si algo ahista el mail.
.:suerte:.
.:blinkfredy:.
Suggest correction
Give kudos to tab author, rate the tab!
1 2 3 4 5
comments
print report bad tab
guest
You may want to rate the tab now too:
select rating
Wanna post a correction for this tab? Suggest correction