Oops, an error
Loading. Please wait.

Los Puños Tab

7 views 1 this week
no commentswrite comment
1 2 3 4 5
3 more votes to show rating
add to favorites
launch autoscroll
font size
0
reset
how to read this tab
guitar tuner
Autoscroll
slow
fast
+/-
esc
set tempo
stop
Help us to improve Ultimate-Guitar.com Take our survey!
×
INTRO:
E|--------------------------------------------------|
B|--------------------------------------------------|
G|-11--9--9-11-9-8--9s11-9--8-9-11--9-8--13-11-9-11-|
D|--------------------------------------------------|
A|--------------------------------------------------|
E|--------------------------------------------------|


C5*
Un día perfecto,
Gm5*                  A5*
Miro al sol y no me arden los ojos,
Gm5*               C5*
Me miro al espejo, soy un vampiro
Gm5                A5*     Gm5*
Que se encontró su reflejo

C5*               Gm5*
Solo con mi sombra
A5*              Gm5*
He perdido un millón de batallas
C5*                   Gm5                         A5*
Pero esta es la mía y no hay piedra que me haga caer
      Gm5*
En mi propia trampa

C5                 D5
Y que no me esperen en mi casa
       G5     G#5  E5
Por que estoy mejor
C5             Gm5
Tomé medicina cuidado que soy puro amor

E|---------------|------------|
B|---------------|------------|
G|---------------|---(Bajo)---|
D|-99999-88888-6-|------------|
A|-99999-88888-6-|------------|
E|-77777-66666-4-|-0000000000-|

D5           A5
Hoy me esquivé los puños
B5             A5
Que me quitaban el aliento
D5           A5
Voy firme por mi rumbo
B5      A5     G#m5
Y nunca voy a parar

C5              Gm5
Fui la noche sin luna
A5            Gm5
El rompecabezas incompleto
     C5           Gm5
El león peleador sin ley de la calle
A5             Gm5
Que nunca ganó una pelea

C5                 D5
Y que no me esperen en mi casa
       G5     G#5  E5
Por que estoy mejor
C5             Gm5
Tomé medicina cuidado que soy puro amor

E|----------------|
B|----------------|
G|----------------|
D|-99999-77777-6--|
A|-99999-77777-6--|
E|-77777-55555-4--|

D5           A5
Hoy me esquivé los puños
B5             A5
Que me quitaban el aliento
D5           A5
Voy firme por mi rumbo
B5      A5     G#m5
Y nunca voy a parar

Soy la bala perdida
Soy el alma que lleva el demonio
LA cuenta vencida
El dardo en el blanco
El primero que hace la fila

D5           A5
Hoy me esquivé los puños
B5             A5
Que me quitaban el aliento
D5           A5
Voy firme por mi rumbo
B5      A5     G#m5
Y nunca voy a parar (y otra vez porque)
D5           A5
Hoy me esquivé los puños
B5             A5
Que me quitaban el aliento
D5           B5
Voy firme por mi rumbo
A5      B5   A5      B5
Y nunca voy Y nunca voy´
A5      B5      A5
Y nunca voy a parar

FINAL:
E|---------------------------------------------------------|
B|---------------------------------------------------------|
G|-11-11-12-14-14s15--15-14-12h11--9-11-12-14-12-11-9-11---|
D|---------------------------------------------------------|
A|---------------------------------------------------------|
E|---------------------------------------------------------|

E|-14141414-13131313-11111111-------------|
B|---------------------------13-11-9------|
G|------------------------------------11--|
D|----------------------------------------|
A|----------------------------------------|
E|----------------------------------------|

ACORDES:
E|----X-----X-----X-----X-----X-----X----X----X----|
B|----X-----X-----X-----X-----X-----X----X----X----| s = slide
G|----5-----7-----12----11----9-----X----X----X----| * = palm mute
D|----5-----7-----12----11----9-----5----9----6----| h = hammer on
A|----3-----5-----10----9-----7-----5----9----6----|
E|----X-----X-----X-----X-----X-----3----7----4----|
      C5    D5    G5    G#5   E5    Gm5  B5   G#m5
Suggest correction
Give kudos to tab author, rate the tab!
1 2 3 4 5
comments
print report bad tab
guest
You may want to rate the tab now too:
select rating
Wanna post a correction for this tab? Suggest correction