Oops, an error
Loading. Please wait.

Mi Ángel En El Infierno Tab

14 views 1 this week
no commentswrite comment
1 2 3 4 5
3 more votes to show rating
add to favorites
×
Save as Personal and add changes to this tab that will be seen only by you. Learn more ›
×
You can save this tab as Personal to edit and correct it or add notes. All changes will be seen only by you. Learn more »
save as personal
new!
launch autoscroll
font size
0
reset
how to read this tab
guitar tuner
Autoscroll
slow
fast
+/-
esc
set tempo
stop
INTRO:
E|-------------------------------------|
B|-------------------------------------|
G|-----------------8-------------------|
D|-8-10-12-10-8-10---12-10-8-10---8-7--|
A|-------------------------------------|
E|-------------------------------------|

E|-------------------------------------|
B|-------------------------------------|
G|-----------------8-------------------|
D|-8-10-12-10-8-10---12-10-8-7---8-10--|
A|-------------------------------------|
E|-------------------------------------|

A#5          D5  D#5
Me aburre estar escuchando
A#5          D#5 F5
los payasos del poder
A#5           D5  D#5
se aprovechan de este caos
A#5                D#5 F5
y de nuestra ruina para prometer


A#5       D5  D#5
Me ofende ver esos farsantes
A#5               D#5 F5
con caras amables por televisión
A#5             D5  D#5
que se inventan una guerra
A#5                   D#5 F5
y después se cagan en el pantalón


G5                                D#5
En el medio de este infierno solo tengo una razón
     A#5      F5
para sentirme vivo
G5                               D#5
despertarme a tu lado es lo que me hace comprender
F5
que la vida es más simple


         A#5            D#5        F5     D#5  F5
Mientras seas tú quien duerma a mi lado
       A#5         D#5        F5     D#5  F5
es más fácil soportar esta tragedia
G5                D#5
ellos creen tener el poder
A#5                     F5
pero a tu lado yo tengo el control
A#5                    D#5    F5    A#5     D#5 F5
mientras seas tú quien duerma a mi lado

E|------------------------------------|
B|------------------------------------|
G|-77-7-7-8-8s10s-8---77-7-7-8s10-----|
D|--------------------------------10v-|
A|------------------------------------|
E|------------------------------------|

E|-------------------------------------------|
B|-------------------------------------------|
G|-8s10-8-7-8--7----7-----------8f-7----7----|
D|---------------10---10-8-10--------10---8v-|
A|-------------------------------------------|
E|-------------------------------------------|

G5                                D#5
En el medio de este infierno solo tengo una razón
     A#5      F5
para sentirme vivo
G5                               D#5
despertarme a tu lado es lo que me hace comprender
F5
que la vida es más simple


         A#5            D#5        F5     D#5  F5
Mientras seas tú quien duerma a mi lado
       A#5         D#5        F5     D#5  F5
es más fácil soportar esta tragedia
G5                D#5
ellos creen tener el poder
A#5                     F5
pero a tu lado yo tengo el control
A#5                    D#5    F5    A#5     D#5 F5
mientras seas tú quien duerma a mi lado
A#5                    D#5          F5      D#5 F5
mientras seas tú quien duerma a mi lado
A#5              D#5         F5      D#5 F5
es más fáci soportar esta tragedia


G5                D#5
ellos creen tener el poder
A#5                     F5
pero a tu lado yo tengo el control
A#5                    D#5    F5    A#5     D#5 F5
mientras seas tú quien duerma a mi lado
A#5                    D#5    F5    A#5     D#5 F5
mientras seas tú quien duerma a mi lado
A#5                    D#5    F5    A#5     D#5 F5
mientras seas tú quien duerma a mi lado
A#5                    D#5    F5    A#5     D#5 F5
mientras seas tú quien duerma a mi lado
    A#5
solo tu


ACORDES:
E|---X----X----X----X----X---|
B|---X----X----X----X----X---| s = slide
G|---X----7----8----10---X---| f = full
D|---8----7----8----10---5---| v = vibrato
A|---8----5----6----8----5---|
E|---6----X----X----X----3---|
    A#5   D5  D#5  F5   G5
Suggest correction
Give kudos to tab author, rate the tab!
1 2 3 4 5
comments
print report bad tab
guest
Wanna post a correction for this tab? Suggest correction