Oops, an error
Loading. Please wait.

No Hay Tiempo Que Perder Tab

11 views 1 this week
no commentswrite comment
1 2 3 4 5
3 more votes to show rating
add to favorites
launch autoscroll
font size
0
reset
how to read this tab
guitar tuner
Autoscroll
slow
fast
+/-
esc
set tempo
stop
INTRO
E|------------------------------------------|
B|------------------------------------------|
G|--------------------------3p5-5-5---------| X2
D|----2--------5-3-2------2---------5-3-2---|
A|-33---3-3--3-------33-3-------------------|
E|------------------------------------------|


C5                           A5
Una historia de amor que nunca comenzó,
                                    F5
una palida flor que igual se marchitó,
            G5                   C5
y dejó en tu alma marcada una pena.

E|----------|
B|----------|
G|----------|
D|--33-3-5--|
A|--33-3-5--|
E|--11-1-3--|

C5                                A5
Una tonta canción que nunca terminó,
                                    F5
un acorde mayor que siempre fué menor,
             G5                  C5
suena el intervalo de tu tristeza.

E|-----------|
B|-----------|
G|-9999-7777-|
D|-9999-7777-|
A|-7777-5555-|
E|-----------|

PRE- CORO
F5           G5            C5               A5
Y aunque me digas que el error fué de los dos,
         G5
es más grande mi dolor.


CINTRO
E|------------------------------------------|
B|------------------------------------------|
G|--------------------------3p5-5-5---------| X2
D|----2--------5-3-2------2---------5-3-2---|
A|-33---3-3--3-------33-3-------------------|
E|------------------------------------------|


C5                           A5
Una historia de amor que nunca comenzó,
                                    F5
una palida flor que igual se marchitó,
            G5                    C5
y dejó en tu alma marcada una pena.

E|----------|
B|----------|
G|----------|
D|--33-3-5--|
A|--33-3-5--|
E|--11-1-3--|

C5                                A5
Una tonta canción que nunca terminó,
                                    F5
un acorde mayor que siempre fué menor,
            G5                   C5
suena el intervalo de tu tristeza.

E|-----------|
B|-----------|
G|-9999-7777-|
D|-9999-7777-|
A|-7777-5555-|
E|-----------|

PRE- CORO
F5           G5            C5                A5
Y aunque me digas que el error fué de los dos,
         G5
es más grande mi dolor.


CORO
C5                 A5            E5
Acordate que a mi lado todo todo va estar bien,
         F5                       G5
no penses y disfrutalo que No hay tiempo que perder.
C5                 A5              E5
Ya la noche se nos vuela, así que me arrepentiré,
          F5                       G5
no pensemos disfrutemos que No hay tiempo que perder.

E|------------------------------------------|
B|------------------------------------------|
G|--------------------------3p5-5-5---------| X2
D|----2--------5-3-2------2---------5-3-2---|
A|-33---3-3--3-------33-3-------------------|
E|------------------------------------------|


C5                                        A5
Habra pasado un mes y no te he vuelto a ver,
                                      F5
seguro que te fuiste yo no sé con quien,
              G5                      C5
y en el fondo no me importa por que no te quiero.

E|----------|
B|----------|
G|----------|
D|--33-3-5--|
A|--33-3-5--|
E|--11-1-3--|

C5                                   A5
Cuando cerré la puerta de aquel motel,
                               F5
sabía que esa era la última vez,
             G5               C5
que mis días no serían dulces como ayer.

E|-----------|
B|-----------|
G|-9999-7777-|
D|-9999-7777-|
A|-7777-5555-|
E|-----------|

PRE- CORO

CORO

SOLO:
E|-----------------7--9-7----7--88-87---------------|
B|-8-88-10-8--8-10--------10----------10-8-10---888-|
G|--------------------------------------------------|
D|--------------------------------------------------|
A|--------------------------------------------------|
E|--------------------------------------------------|
   F           G           C       Am      G

CORO
C5               A5             E5
Acordate que a mi lado todo todo va estar bien,
         F5                       G5
no penses y disfrutalo que No hay tiempo que perder.
C5                 A5              E5
Ya la noche se nos vuela, así que me arrepentiré,
          F5                       G5
no pensemos disfrutemos que No hay tiempo que perder.

FINAL:
E|-------------------------------------------------------------|
B|-------------------------------------------------------------|
G|-5555555--------------------------------------------------5--|
D|-5555555-7777777-55555555555555-33333333333333-5555555555-5--|
A|-3333333-7777777-55555555555555-33333333333333-5555555555-3--|
E|---------5555555-33333333333333-11111111111111-3333333333----|
Suggest correction
Give kudos to tab author, rate the tab!
1 2 3 4 5
comments
print report bad tab
guest
Wanna post a correction for this tab? Suggest correction