Oops, an error
Loading. Please wait.

No Más Penas Bass Tab

1 view 1 this week
no commentswrite comment
1 2 3 4 5
3 more votes to show rating
add to favorites
launch autoscroll
font size
0
reset
guitar tuner
Autoscroll
slow
fast
+/-
esc
set tempo
stop
Help us to improve Ultimate-Guitar.com Take our survey!
×
INTRO:
G|---------------------------------------------------|
D|-----------4-4-4-4-4-5-5-5-5-5-4-4-4-4-4-2-2-2-2-2-|
A|-5-5-5-5-5-----------------------------------------|
E|---------------------------------------------------|

G|----------------------------------------------|
D|-----------4-4-4-4-4-5?5-5-5-5-7-7-7-7-7------|
A|--5-5-5-5-5-----------------------------------|
E|----------------------------------------------|

?a sorbos consumí tu vicio...?
G|----------------------------------------------|
D|-----------4-4-4-4-4-5?5-5-5-5-7-7-7-7-7------|
A|--5-5-5-5-5-----------------------------------| 2X
E|----------------------------------------------|

?ya que si recuerdo...?
G|-----------------------------------------|
D|-5-5-5-5-5-4-4-4-4-4-2-2-2-2-2-4-4-4-4-4-|
A|-----------------------------------------|
E|-----------------------------------------|

G|-------------------------------------------|
D|5-5-5-5-5-4-4-4-4-4------------------------|
A|--------------------5-5-5-5-5-5-5-5-5-5----|
E|-------------------------------------------|

?entre un trago y un cigarro...?
G|-----------------------------------------|
D|-5-5-5-5-5-4-4-4-4-4-2-2-2-2-2-4-4-4-4-4-|
A|-----------------------------------------|
E|-----------------------------------------|

G|---------------------------------|
D|---------------------7-7-7-7-7-7-|
A|-5-5-5-5-5-5-5-5-5-5-------------|
E|---------------------------------|

CORO:
G|-------------------------------------------------------------|
D|-----------5-5-5-5-5-----------7-7-7-7-7-----------7-7-7-7-7-|
A|-5-5-5-5-5-----------5-5-5-5-5-----------5-5-5-5-5-----------|
E|-------------------------------------------------------------| 2x

INTRO:

?ahora ya soy un adicto...?
G|-------------------------------------------|
D|------------6-6-6-6-6-7-7-7-7-7-9-9-9-9-9--|
A|--7-7-7-7-7--------------------------------|
E|-------------------------------------------| 2X

?porque si esa tarde...?
G|-----------------------------------------|
D|-7-7-7-7-7-6-6-6-6-6-4-4-4-4-4-6-6-6-6-6-|
A|-----------------------------------------|
E|-----------------------------------------|

G|----------------------------------------------|
D|-------------7-7-7-7-7-6-6-6-6-6--------------|
A|-7-7-7-7-7-7---------------------7-7-7-7-7-7--|
E|----------------------------------------------|

Mis cobijas tan mojadas......
G|-----------------------------------------|
D|-7-7-7-7-7-6-6-6-6-6-4-4-4-4-4-6-6-6-6-6-|
A|-----------------------------------------|
E|-----------------------------------------|

G|---------------------------------|
D|---------------------9-9-9-9-9-9-|
A|-7-7-7-7-7-7-7-7-7-7-------------|
E|---------------------------------|


CORO

 ?ultima vez que malgasto...?
G|-------------------------------------------------------------|
D|-7-7-7-7-7-9-9-9-9-9---------------------7-7-7-7-7-9-9-9-9-9-|
A|---------------------7-7-7-7-7-4-4-4-4-4---------------------|
E|-------------------------------------------------------------|

PARTE INSTRUMENTAL(todo toca hacerlo dos veces)
G|------------------------------------------------|
D|-6-6-6-4-4-4-2-2-2-6-6-6-4-4-4-6-6-6------------|
A|-------------------------------------7-7-7--6-4-|
E|------------------------------------------------|

G|------------------------------------------------|
D|-6-6-6-4-4-4-2-2-2-6-6-6-4-4-4-6-6-6------------|
A|-------------------------------------7-7-7-7-7--|
E|------------------------------------------------|

NOTA FINAL:
G|-------|
D|-------|
A|--7~---|
E|-------|


Esta cancion es muy bacana y por eso mas adelante les mandare la
vercion para guitarra... y no se que sucesde con la escena
colombiana, hacen falta mas grupos es este sictio como
octubre negro o 69 enfermos pero bueno....suerte
Suggest correction
Give kudos to tab author, rate the tab!
1 2 3 4 5
comments
print report bad tab
guest
You may want to rate the tab now too:
select rating
Wanna post a correction for this tab? Suggest correction