Oops, an error
Loading. Please wait.

No Más Penas Tab

12 views 1 this week
no commentswrite comment
1 2 3 4 5
3 more votes to show rating
add to favorites
launch autoscroll
font size
0
reset
how to read this tab
guitar tuner
×
Best way to learn
"No Más Penas"
Autoscroll
slow
fast
+/-
esc
set tempo
stop
E|------------------x2-|----------------------------------|
B|-9-9-9-7-7-7---------|-9-9-9-7-7-7-9-9-9-11-11-11-9?99--|
G|-------------9-9-9---|----------------------------------|
D|---------------------|----------------------------------|
A|---------------------|----------------------------------|
E|---------------------|----------------------------------|

E|------------------x2-|--------------------------------------|
B|-9-9-9-7-7-7---------|-9-9-9-7-7-7-9-9-9-11-11-11-11-11-11--|
G|-------------9-9-9---|--------------------------------------|
D|---------------------|--------------------------------------|
A|---------------------|--------------------------------------|
E|---------------------|--------------------------------------|

A sorbos consumí tú vicio...
E|----------------------------------------|
B|----------------------------------------|
G|-77777777----------------------------x2-|
D|-77777777-44444444-55555555-77777777----|
A|-55555555-44444444-55555555-77777777----|
E|----------22222222-33333333-55555555----|
  |_______________pm___________________|

Ya que si recuerdo....
E|-------------------------------------------------------x1---|
B|------------------------------------------------------------|
G|-----------------9999999------------------------77777777777-|
D|-5555555-7777777-9999999-7777777-5555555-777777-77777777777-|
A|-5555555-7777777-7777777-7777777-5555555-777777-55555555555-|
E|-3333333-5555555---------5555555-3333333-555555-------------|

Entre un trago y un cigarro....
E|--------------------------------------------------------x1--|
B|------------------------------------------------------------|
G|-----------------9999999------------------------------------|
D|-5555555-7777777-9999999-7777777-5555555555555-777777777777-|
A|-5555555-7777777-7777777-7777777-5555555555555-777777777777-|
E|-3333333-5555555---------5555555-3333333333333-555555555555-|

CORO: Y no mas penas no no no
E|------------------------------------------------------------|
B|--------------------------------------------------------x2--|
G|-7777777---------7777777---------777777777777---------------|
D|-7777777-5555555-7777777-7777777-777777777777-7777777777777-|
A|-5555555-5555555-5555555-7777777-555555555555-7777777777777-|
E|---------3333333---------5555555--------------5555555555555-|

E|------------------x2-|----------------------------------|
B|-9-9-9-7-7-7---------|-9-9-9-7-7-7-9-9-9-11-11-11-9?99--|
G|-------------9-9-9---|----------------------------------|
D|---------------------|----------------------------------|
A|---------------------|----------------------------------|
E|---------------------|----------------------------------|

E|------------------x2-|--------------------------------------|
B|-9-9-9-7-7-7---------|-9-9-9-7-7-7-9-9-9-11-11-11-11-11-11--|
G|-------------9-9-9---|--------------------------------------|
D|---------------------|--------------------------------------|
A|---------------------|--------------------------------------|
E|---------------------|--------------------------------------|
Ahora ya soy un adicto...
E|------------------------------------------|
B|------------------------------------------|
G|-99999999-------------------444444444--x2-|
D|-99999999-66666666-77777777-444444444-----|
A|-77777777-66666666-77777777-222222222-----|
E|----------44444444-55555555---------------|


Ya que si recuerdo....
E|------------------------------------------------------------|
B|------------------------------------------------------------|
G|-----------------9999999------------------------77777777777-|
D|-5555555-7777777-9999999-7777777-5555555-777777-77777777777-|
A|-5555555-7777777-7777777-7777777-5555555-777777-55555555555-|
E|-3333333-5555555---------5555555-3333333-555555-------------|

E|--------------------------------------------------------x1--|
B|------------------------------------------------------------|
G|-----------------9999999-----------------------444444444444-|
D|-5555555-7777777-9999999-7777777-5555555555555-444444444444-|
A|-5555555-7777777-7777777-7777777-5555555555555-222222222222-|
E|-3333333-5555555---------5555555-3333333333333--------------|

CORO: Y no mas penas no no no
E|------------------------------------------------------------|
B|--------------------------------------------------------x2--|
G|-7777777---------7777777---------777777777777---------------|
D|-7777777-5555555-7777777-7777777-777777777777-7777777777777-|
A|-5555555-5555555-5555555-7777777-555555555555-7777777777777-|
E|---------3333333---------5555555--------------5555555555555-|

?Ultima vez que malgasto una tarde en el vallet?
E|--------------------------------------------------------x1--|
B|------------------------------------------------------------|
G|---------4444444-9999999-----------------------444444444444-|
D|-7777777-4444444-9999999-7777777-7777777777777-444444444444-|
A|-7777777-2222222-7777777-7777777-7777777777777-222222222222-|
E|-5555555-----------------5555555-5555555555555--------------|


INSTRUMENTAL: x2
E|-----------------x2--|--------------------------------|
B|-9-9-9-7-7-7---------|--------------------------------|
G|-------------9-9-9---|-10-10-10-10-9-7-7-7-7-7-7-7----|
D|---------------------|--------------------------------|
A|---------------------|--------------------------------|
E|---------------------|--------------------------------|

E|------------------x2-|-------------------------------------|
B|-9-9-9-7-7-7---------|-------------------------------------|
G|-------------9-9-9---|-10-10-10-10-10-10-10-10-10-10-10-10-|
D|---------------------|-------------------------------------|
A|---------------------|-------------------------------------|
E|---------------------|-------------------------------------|

NOTA FINAL:
E|------|
B|------|
G|--10--|
D|------|
A|------|
E|------|

LISTO HAY ESTA, FALTABA LA GUITARRA PUES EL BAJO YA LO HABIA
MANDADO Y PUES SI NO ES MAS SOLO ESCRIBANE SI QUIEREN AL
CORREO PARA CORRECCIONES Y COSAS DE ESAS Y SALUDES TODOS Y
SOBRE TODO A VIVIANA PARA DECIRTE Q TE AMO Y NO MAS PENAS
Suggest correction
Give kudos to tab author, rate the tab!
1 2 3 4 5
comments
print report bad tab
guest
You may want to rate the tab now too:
select rating
Wanna post a correction for this tab? Suggest correction