Oops, an error
Loading. Please wait.

No Soy Para Vos Chords

version 1
version 1

Whole song

22 views 1 this week
no commentswrite comment
1 2 3 4 5
3 more votes to show rating
add to favorites
×
Save as Personal and add changes to this tab that will be seen only by you. Learn more ›
×
You can save this tab as Personal to edit and correct it or add notes. All changes will be seen only by you. Learn more »
save as personal
new!
launch autoscroll
font size
0
reset
transpose
0
reset
simplify chords
display chords
guitar tuner
Autoscroll
slow
fast
+/-
esc
set tempo
stop
Strumming
There is no strumming pattern for this song yet. and get +5 IQ
CORO:
A#5*       A5*     G5*       F#5*
No vale la pena no llores por mí
A#5*       A5*     G5*       F#5~
No demos mas vueltas dejémoslo así
A#5*         A5*      G5*       F#5*
No soy de tu talla nunca te serví
A#5*          A5*       G5*       F#5~
Yo estoy en la luna y vos en Medellín

RIFF 1:
e|---------------------------|
B|-7-7-7-79-7---9-9-9-911-9--|
G|---------------------------|
D|----------------------X2---|
A|---------------------------|
E|---------------------------|

A#5        A5       G5        F#5
No voy al teatro no salgo del bar
A#5         A5       G5     F#5
Nunca leo un libro solo se cantar
A#5        A5         G5       F#5
No somos quizá del mismo material
A#5          A5        G5        D5/C5/A#5
Vos no sos mi Eva y yo no soy tu Adán


A#5       A5        G5    D5/C5/A#5
Sos de perfume yo soy de sudor
A#5       A5        G5      F#5*
Vos sos rutina yo soy Rock N Roll


CORO:

RIFF 1:


BAJO:No vale la pena no llores por mi...
G|-------------------------------------|
D|-----------------------------X2------|
A|-11111111-00000000-------------------|
E|-------------------33333333-11111111-|

A#5*         A5*      G5*       F#5*
No soy de tu talla nunca te serví
A#5*          A5*       D5/C5/A#5
Yo estoy en la luna y vos en Medellín


A#5       A5        G5    D5/C5/A#5
Sos de perfume yo soy de sudor
A#5       A5*       G5*     F#5*
Vos sos rutina yo soy Rock N Roll

A#5         A5         G5        F#5
No soy para vos ni vos sos para mí
A#5         A5         G5        F#5
No soy para vos ni vos sos para mí
A#5*       A5       G5        F#5
No vale la pena no llores por mi
A#5         A5         G5*       F#5
No soy para vos ni vos sos para mí

FINAL:
e|-----------------------------------------------------------|
B|-7-7-7-79-7---9-9-9-911-9---7-7-7-79-7---9-9-9-911-9-7-6-7-|
G|-----------------------------------------------------------|
D|-----------------------------------------------------------|
A|-----------------------------------------------------------|
E|-----------------------------------------------------------|

ACORDES:
e|--X----X----X----X----X----X---|
B|--X----X----X----X----X----X---| * = PALM MUTE
G|--3----0----X----X----7----5---| ~ = LET RING
D|--3----0----5----3----7----5---| / = SLIDE
A|--1----2----5----3----5----3---|
E|--X----X----3----1----X----X---|
   A#5   A5   G5   F#5  D5   C5

LA CANCION NO ES DIFICIL SOLO ES CUESTION DE RECORDAR
LOS CAMBIOS QUE HACE SEBASTIAN Y LA FORMA DE TOCAR
LOS ACORDES..... COMENTARIOS O SI BUSCAN CANCIONES
DE CHITE O DE ALGUNAS OTRAS BANDAS NACIONALES
ESCRIBANME A ROCKANDRES182@
Suggest correction
Give kudos to tab author, rate the tab!
1 2 3 4 5
comments
print report bad tab
guest
Wanna post a correction for this tab? Suggest correction