Oops, an error
Loading. Please wait.

Ole Ole Ole Chords

33 views 1 this week
no commentswrite comment
1 2 3 4 5
3 more votes to show rating
add to favorites
×
Save as Personal and add changes to this tab that will be seen only by you. Learn more ›
×
You can save this tab as Personal to edit and correct it or add notes. All changes will be seen only by you. Learn more »
save as personal
new!
launch autoscroll
font size
0
reset
transpose
0
reset
simplify chords
display chords
guitar tuner
Autoscroll
slow
fast
+/-
esc
set tempo
stop
Strumming
There is no strumming pattern for this song yet. and get +5 IQ
Ole ole ole ....
E|-----------------------------------|
B|-----------------------------------| X2
G|-4-4-444------------------44444444-|
D|-4-4-444-44444444-2-2-222-44444444-|
A|-2-2-222-44444444-2-2-222-22222222-|
E|---------22222222-0-0-000----------|

B5                E5   F#5
comienza un nuevo dia,
B5                E5   F#5
con la ilusion incomprendida
B5             E5   F#5
Que me juzguen que me miren
B5           E5    F#5
desede abajo hasta arriba

Ole ole ole ....
E|-----------------------------------|
B|-----------------------------------| X2
G|-4-4-444------------------44444444-|
D|-4-4-444-44444444-2-2-222-44444444-|
A|-2-2-222-44444444-2-2-222-22222222-|
E|---------22222222-0-0-000----------|

B5                 E5   F#5
Soporto las horas laborales
B5                     E5         F#5
y una semana mas de un jefe insoportable
B5                    E5   F#5
pero llega el domingo llega el momento especial
B5          E5    F#5
del desahogo de pasiones


C#5             G#5
Cómo explicarte lo que tengo en la cabeza
C#5                       F#5
en mi mano una bandera y en la otra una cerveza

CORO:
B5            F#5   E5          B5
Cuando la pasion se vuelve cancion
B5            F#5        E5            B5
cuando los colores te envuelven el corazon
B5            F#5   E5          B5
Cuando la pasion se vuelve cancion
B5            F#5        E5
cuando los colores te envuelven el corazon

E|-------------------------------------------------------|
B|-------------------------------------------------------|
G|-11----8-9-11--9-8-6v---4-6s8s--4h6p4---6-8-9-8-9-11v--|
D|-------------------------------------------------------|
A|-------------------------------------------------------|
E|-------------------------------------------------------|


C#5             G#5
Cómo explicarte lo que tengo en la cabeza
C#5                       F#5
en mi mano una bandera y en la otra una cerveza
B5
y en mi alma la camiseta


B5
Ole ole ole, ole ole ola...


B5            F#5   E5          B5
Cuando la pasion se vuelve cancion
B5            F#5        E5            B5
cuando los colores te envuelven el corazon
B5            F#5   E5          B5
cuando la pasion
B5            F#5        E5          B5
se vuelve una hermosa cancion en la tribuna
B5         F#5            E5          B5
si no lo vivis no lo entendes aca parado
          B5       F#5    E5             B5
es que yo vivo la vida cantando en la tribuna
      B5          F#5        E5          B5
la promesa de por vida: nuca te abandonare


ACORDES:
E|---X----X----X----X----X----|
B|---X----X----X----X----X----| v = vibrato
G|---4----X----X----X----6----| s = slide
D|---4----4----2----6----6----| p = pull of
A|---2----4----2----6----4----| h = hammer on
E|---X----2----0----4----X----|
     B5  F#5   E5  G#5  C#5
Suggest correction
Give kudos to tab author, rate the tab!
1 2 3 4 5
comments
print report bad tab
guest
Wanna post a correction for this tab? Suggest correction