Oops, an error
Loading. Please wait.

Orgulloso Del Pueblo Tab

4 views 1 this week
no commentswrite comment
1 2 3 4 5
3 more votes to show rating
add to favorites
launch autoscroll
font size
0
reset
how to read this tab
guitar tuner
×
Best way to learn
"Orgulloso Del Pueblo"
Autoscroll
slow
fast
+/-
esc
set tempo
stop
E|----------------------|
B|----------------------|
G|----555-7~~--55-------|
D|-55-555-7~~--55-5555--| x2
A|-55-333-5~~--33-5555--|
E|-33-------------3333--|


C5*                             G5*
En días de violencia y desemplo
 C5*                         D5*
El barrio desangraba de dolor
      C5*                           G5*
Tus amigos de la esquina te buscaban
            C5*
Te ofrecían, muchas drogas (muchas drogas)
D5*                D5 D5 D5
mucho alcohol? (Ey ey ey)


C5*                    G5 G5 G5
Pero vos estabas lleno de ilusión
C5*                           D5 D5 D5
Un sueño lejos de la delincuencia
        C5                      Riff 1
Jugando fútbol de noche y de día en el potrero
                                 D5 D5 D5
Y acabar en tu familia la pobreza


C5                          G5
El destino te premio un domingo cualquiera
C5                          G5
El equipo del barrio al gran equipo de primera
D5                        C#5 C5
Toda la hinchada grito tu nombre
           G5
Y al otro día tu foto salio
D5
en las noticias y en la prensa


CORO:
        C5      E5        D5
Y ahora sos orgullo del pueblo
        C5      E5          D5
Jugando fútbol nos diste alegría
              C5      D5          G5
Y el barrio celebra abrazado tu gol

E|----------------------|
B|----------------------|
G|----555-7~~--55-------|
D|-55-555-7~~--55-5555--| x2
A|-55-333-5~~--33-5555--|
E|-33-------------3333--|

E|--------------------------------------------------------|
B|--------------------------------------------------------|
G|-12--11-12--11-12-11-12--14-12---17-16-14--12-12-14-12--|
D|--------------------------------------------------------|
A|--------------------------------------------------------|
E|--------------------------------------------------------|

E|---------|----------|--------------------|
B|---------|----------|--------------------|
G|-12-10-9-|-14-12-11-|--17-16-14-12-14-16-|
D|---------|----------|--------------------|
A|-----X3--|-----X3---|--------------------|
E|---------|----------|--------------------|

E|----------------------|
B|----------------------|
G|-17F-16-14-12-14-12~~-|
D|----------------------|
A|----------------------|
E|----------------------|
        C5~     E5~       D5~
Y ahora sos orgullo del pueblo
        C5~     E5~         D5~
Jugando fútbol nos diste alegría
              C5~     D5~
Y el barrio celebra abrazado tu gol

E|---------------|
B|---------------|
G|----555-7~~----|
D|-55-555-7~~----|
A|-55-333-5~~----|
E|-33------------|

C5                          G5
El destino te premio un domingo cualquiera
   C5                       G5
El equipo del barrio al gran equipo de tu tierra
D5                           C5
Toda la hinchada grito tu nombre
           G5
Y al otro día tu foto salio
D5
en las noticias y en la prensa

        C5      E5        D5
Y ahora sos orgullo del pueblo
        C5      E5          D5
Jugando fútbol nos diste alegría
              C5      D5          G5
Y el barrio celebra abrazado tu gol

El barrio celebra, el barrio celebra...
E|-------------------------------|
B|-------------------------------|
G|----555-7777777-55-------------|
D|-55-555-7777777-55-5555555555--| x3
A|-55-333-5555555-33-5555555555--|
E|-33----------------3333333333--|

El barrio celebra abrazado tu gol
E|--------------------|
B|--------------------|
G|-7-77-5-55----------|
D|-7-77-5-55-555-5-5--|
A|-5-55-3-33-555-5-5--|
E|-----------333-3-3--|
             *** *
RIFF 1:
E|-------------------------------------------------------------|
B|-------------------------------------------------------------|
G|-55-5-55-5-55-5----------------77-7-77-7-77-7----------------|
D|-55-5-55-5-55-5-55-5-55-5-55-5-77-7-77-7-77-7-55-5-55-5-55-5-|
A|-33-3-33-3-33-3-55-5-55-5-55-5-55-5-55-5-55-5-55-5-55-5-55-5-|
E|----------------33-3-33-3-33-3----------------33-3-33-3-33-3-|
   **   **   **   **   **   **   **   **   **   **   **   **

ACORDES:
E|----X----X----X----X----| * = PALM MUTE
B|----X----X----X----X----| ~ = LET RING
G|----7----X----5----9----|
D|----7----5----5----9----|
A|----5----5----3----7----|
E|----X----3----X----X----|
      D5   G5   C5   E5
Suggest correction
Give kudos to tab author, rate the tab!
1 2 3 4 5
comments
print report bad tab
guest
You may want to rate the tab now too:
select rating
Wanna post a correction for this tab? Suggest correction